Oops, an error
Loading. Please wait.

Bleeding Tab

version 4
19,063 views 1 this week
no commentswrite comment
1 2 3 4 5
accurate
x 3
add to favorites
launch autoscroll
font size
0
reset
how to read this tab
guitar tuner
Autoscroll
slow
fast
+/-
esc
set tempo
stop
Help us to improve Ultimate-Guitar.com Take our survey!
×
Author
Five Finger Death Punch
"The Bleeding Acoustic"                Please Rate
Tuning Drop C
-Strum patterns not exact listen for exact-
Tabbed by akousticffdp

  Intro:
D|-----------------------------------------------|   --|
A|-----------------------------------------------|     |
F|----14-------15-------14-------12-------12h14--|     | X2
C|-------12-12----12-12----12-12----12-12--------|     |
G|-----------------------------------------------|     |
C|--0--------------------------------------------|   --|

D|-----------------------------------------------------------------------|
A|-----------------------------------------------------------------------|
F|----10-----10-----10-----10-----10--------12-------12-------12-------12|
C|--8----8-8----8-8----8-8----8-8----8-8/10----10-10----10-10----10-10---|
G|-----------------------------------------------------------------------|
C|-----------------------------------------------------------------------|

  Verse:

D|-----------------------------------------------|   --|
A|-----------------------------------------------|     |
F|----14-------15-------14-------12-------12h14--|     | X2     --------| 
C|-------12-12----12-12----12-12----12-12--------|     |                |
G|-----------------------------------------------|     |                |
C|--0--------------------------------------------|   --|                |
                                                                        | X5
D|--------------------------------------------------------------|       |
A|------------------10h11p10------------------------------------|       |
F|----9-10~~--10-12----------12-12p10~~--9-12-10-9-10-9---------|       |
C|--12--------------------------------------------------12-10~~-| ------|
G|--------------------------------------------------------------|     
C|--------------------------------------------------------------|

  Chorus:

D|------------------------------------------------|-0-|  ------|
A|------------------------------------------------|-3-|        |
F|------------------------------------------------|-2-|        |  X2
C|--0-0-xx-x-0-0-xx-x-0-xx-x-3-3-3-3/5-5-5-5------|-0-|2nd time|        
G|--0-0-xx-x-0-0-xx-x-0-xx-x-3-3-3-3/5-5-5-5------|-0-|        |
C|--0-0-xx-x-0-0-xx-x-0-xx-x-3-3-3-3/5-5-5-5------|-0-|  ------|

  Verse:

D|-----------------------------------------------|   --|
A|-----------------------------------------------|     |
F|----14-------15-------14-------12-------12h14--|     | X2     --------| 
C|-------12-12----12-12----12-12----12-12--------|     |                |
G|-----------------------------------------------|     |                |
C|--0--------------------------------------------|   --|                |
                                                                        | X4
D|--------------------------------------------------------------|       |
A|------------------10h11p10------------------------------------|       |
F|----9-10~~--10-12----------12-12p10~~--9-12-10-9-10-9---------|       |
C|--12--------------------------------------------------12-10~~-| ------|
G|--------------------------------------------------------------|     
C|--------------------------------------------------------------|

 Chorus:

D|------------------------------------------------|
A|------------------------------------------------|
F|------------------------------------------------|    X2
C|--0-0-xx-x-0-0-xx-x-0-xx-x-3-3-3-3/5-5-5-5------|      
G|--0-0-xx-x-0-0-xx-x-0-xx-x-3-3-3-3/5-5-5-5------|
C|--0-0-xx-x-0-0-xx-x-0-xx-x-3-3-3-3/5-5-5-5------|


D|-----------------------------------------------------------------|
A|-----------------------------------------------------------------|
F|--------------------2-2-2-2p0h2-2-xx-----------------5-5-55-55-5-|    X2
C|--0-0-xx-x-0-0-xx-x-2-2-2-2p0h2-2-xx-3-3-33-33-3-xx--5-5-55-55-5-|      
G|--0-0-xx-x-0-0-xx-x-0-0-0-0p0h0-0-xx-3-3-33-33-3-xx--3-3-33-33-3-|
C|--0-0-xx-x-0-0-xx-x---------------xx-3-3-33-33-3-xx--3-3-33-33-3-|


D|------------------------------------------------|
A|------------------------------------------------|
F|------------------------------------------------|    X4
C|--0-0-xx-x-0-0-xx-x-0-xx-x-3-3-3-3/5-5-5-5------|      
G|--0-0-xx-x-0-0-xx-x-0-xx-x-3-3-3-3/5-5-5-5------|
C|--0-0-xx-x-0-0-xx-x-0-xx-x-3-3-3-3/5-5-5-5------|


D|-----------------------------------------------|   --|
A|-----------------------------------------------|     |
F|----14-------15-------14-------12-------12h14--|     | X2    
C|-------12-12----12-12----12-12----12-12--------|     |                
G|-----------------------------------------------|     |                
C|--0--------------------------------------------|   --|                
                              slows.................                         
D|--------------------------------------------------------------|       
A|------------------10h11p10------------------------------------|       
F|----9-10~~--10-12----------12-12p10~~--9-12-10-9-10-9---------|       
C|--12--------------------------------------------------12-10~~-| 
G|--------------------------------------------------------------|     
C|--------------------------------------------------------------|

D|--x--|
A|--x--|
F|--14-| end with strum
C|--12-|
G|--0--|
C|--0--|
Suggest correction
What's this?
You can suggest a correction to this tab. Community and Mods will review your correction and vote to approve or reject it.
comments
We did not receive enough feedback on this tab! Please rate:
print report bad tab
1 2 3 4 5
guest
You may want to rate the tab now too:
select rating
Please do not post tabs as comments. Select "correction" instead!