Oops, an error
Loading. Please wait.

Bleeding Tab

version 5
8,214 views 42 this week
2 commentsread comments
1 2 3 4 5
x 6
add to favorites
×
Save as Personal and add changes to this tab that will be seen only by you. Learn more ›
×
You can save this tab as Personal to edit and correct it or add notes. All changes will be seen only by you. Learn more »
save as personal
new!
launch autoscroll
font size
0
reset
how to read this tab
guitar tuner
Autoscroll
slow
fast
+/-
esc
set tempo
stop
Author
Difficulty
novice
[Intro]
        Em
E|----------------------------------|
B|---0-1-0----0---0-1-0----0--------|
G|---------2-2----------2-2---------|
D|--2-2---2------2-2---2------------|
A|----------------------------------|
E|----------------------------------|

        C       D
E|--------------------------|
B|--------------------------|
G|--0--0-0-0----2--2-2-2----|
D|-------------0--0-0-0-----|
A|-3--3-3-3-----------------|
E|--------------------------|

[Verse 1]

        Em
E|----------------------------------|
B|---0-1-0----0---0-1-0----0--------|
G|---------2-2----------2-2---------|
D|--2-2---2------2-2---2------------|
A|----------------------------------|
E|----------------------------------|

        C       D
E|--------------------------|
B|--------------------------|
G|--0--0-0-0----2--2-2-2----|
D|-------------0--0-0-0-----|
A|-3--3-3-3-----------------|
E|--------------------------|

Em
I remember when, all the games began. Remember,
C                      D
Every little lie, and every last goodbye.
Em
Promises you broke, words you choked on,
      C                               D
And I never walked away, It's still a mystery to me.

[Pre-Chorus]
Em
Well I'm so empty,
      C
I'm better off without you,
           D
And you're better off without me.
Em
Well you're so unclean.
          C
Well I'm better off without you,
            D
And you're better off alone.

[Chorus]
Em
The lying, the bleeding, the screaming,
    G       D [Play these 2 Chords quickly]
Was tearing me apart.
Em
The hatered, deceiving, disaster,
      G  D
It's over now.

[Verse 2]
        Em
E|----------------------------------|
B|---0-1-0----0---0-1-0----0--------|
G|---------2-2----------2-2---------|
D|--2-2---2------2-2---2------------|
A|----------------------------------|
E|----------------------------------|

        C       D
E|--------------------------|
B|--------------------------|
G|--0--0-0-0----2--2-2-2----|
D|-------------0--0-0-0-----|
A|-3--3-3-3-----------------|
E|--------------------------|

Em
Paint the mirrors black, to forget you, and I
C                                D
Still picture your face and the way you used to taste.
Em
Roses in a glass, dead and wilted,
   C                               D
To you this all was nothing, everything to you is nothing.

[Pre-Chorus]
        Em
E|----------------------------------|
B|---0-1-0----0---0-1-0----0--------|
G|---------2-2----------2-2---------|
D|--2-2---2------2-2---2------------|
A|----------------------------------|
E|----------------------------------|

        C       D
E|--------------------------|
B|--------------------------|
G|--0--0-0-0----2--2-2-2----|
D|-------------0--0-0-0-----|
A|-3--3-3-3-----------------|
E|--------------------------|

Em
Well you're so filthy
      C
I'm better off without you,
             D
And you're better off without me.
Em
Well I'm so ugly,
     C
I'm better off without you,
             D
And you're better off alone.

[Chorus]
Em
The lying, the bleeding, the screaming,
     G      D
Was tearing me apart.
Em
The hatered, deceiving, disaster,
     G  D
It's over now.

[Bridge]
Em G
         C
Well as wicked as you are,
      D
You're beautiful to me,
Em G
(Why)
           C
You're the darkest burning star,
       D
You're my perfect disease.

[Chorus] (x2)
Em
The lying, the bleeding, the screaming,
     G      D
Was tearing me apart.
Em
The hatered, deceiving, disaster,
     G  D
It's over now.
Suggest correction
comments
print report bad tab
2 comments total.
0 reply
bradaja2 10 May 14, 2016 09:37 AM, edited at 01:38 pm

Exactly as the author said: not everyone wants complicated tabs which require tuning their guitar to match the song.Even though I consider myself a quite seasoned guitar player I would like to play this song with my friends around the fire and I dont have time to tune my guitar there - I just want to have a basic version that I can play and this verion sure does sound very good. I will try to figure out the several tones that are played at the end of the intro in this tuning and post them here if I manage to find them.

0 reply
aaronistheblackout 39 Jul 22, 2016 01:49 PM

Very good tab! Thank you for it!

guest
You may want to rate the tab now too:
select rating
Wanna post a correction for this tab? Suggest correction