Oops, an error
Loading. Please wait.

Bleeding Tab

version 1
version 1
47,309 views 45 this week
13 commentsread comments
1 2 3 4 5
x 6
add to favorites
launch autoscroll
font size
0
reset
how to read this tab
guitar tuner
Autoscroll
slow
fast
+/-
esc
set tempo
stop
Help us to improve Ultimate-Guitar.com Take our survey!
×
Author
Difficulty
Tuning
intermediate
C G C F A D
-------------------------------------------------------------------------------
                             THE BLEEDING/FIVE-FINGER DEATH PUNCH
-------------------------------------------------------------------------------
Tabbed by:  Matt
Email:

Tuning: Drop C   The verse is tabbed easy.  If you want, double up the low notes
to play it accuratly.

Intro-Guitar 1
e|--------------------------------------------------------------------------|
B|-----10----11----10----8----8/10------------------------------------------|
G|--------------------------------------------------------------------------|
D|--12----12----12----12---10-------x2--------------------------------------|
A|--------------------------------------------------------------------------|
E|--------------------------------------------------------------------------|

e|--------------------------------------------------------------------------|
B|-----6-----6-----6-----6-----6------8------8-----8-----8-----8/10---------|
G|--------------------------------------------------------------------------|
D|--8-----8-----8-----8-----8-----10-----10-----10----10----10--------------|
A|--------------------------------------------------------------------------|
E|--------------------------------------------------------------------------|

Intro-Guitar 2
e|--------------------------------------------------------------------------|
B|--------------------------------------------------------------------------|
G|-----------(just follow the rhythm)---------------------------------------|
D|--------------------------------------------------------------------------|
A|--------------------------------------------------------------------------|
E|-0-0-0-0-0-0-3-5----8-8-8-8-8-----10-10-10-10-----------------------------|

Intro-Guitar 2  (comes in when solo starts)
e|--------------------------------------------------------------------------|
B|--------------------------------------------------------------------------|
G|--------------------------------------------------------------------------|
D|--------------------------------------------------------------------------|
A|-0----7----8---10---------------------------------------------------------|
E|-0----7----8---10---------------------------------------------------------|

Chorus
e|--------------------------------------------------------------------------|
B|--------------------------------------------------------------------------|
G|--------------------------------------------------------------------------|
D|--------------------------------------------------------------------------|
A|-0-00-0-00--0-00-0-00--0-00-0-00--033335555-------------------------------|
E|-0-00-0-00--0-00-0-00--0-00-0-00--033335555-------------------------------|

Verse-Guitar 1
e|--------------------------------------------------------------------------|
B|-----10----11----10----8----8/10------------------------------------------|
G|--------------------------------------------------------------------------|
D|--12----12----12----12---10-------x2--------------------------------------|
A|--------------------------------------------------------------------------|
E|--------------------------------------------------------------------------|

e|--------------------------------------------------------------------------|
B|-----6-----6-----6-----6-----6------8------8-----8-----8-----8/10---------|
G|--------------------------------------------------------------------------|
D|--8-----8-----8-----8-----8-----10-----10-----10----10----10--------------|
A|--------------------------------------------------------------------------|
E|--------------------------------------------------------------------------|

Verse-Guitar 2
e|--------------------------------------------------------------------------|
B|--------------------------------------------------------------------------|
G|-----------(just follow the rhythm)---------------------------------------|
D|--------------------------------------------------------------------------|
A|--------------------------------------------------------------------------|
E|-0-0-0-0-0-0-3-5----8-8-8-8-8-----10-10-10-10-----------------------------|

Bridge
e|--------------------------------------------------------------------------|
B|--------------------------------------------------------------------------|
G|--------------------------------------------------------------------------|
D|--------------------------------------------------------------------------|
A|-0----7----8---10---------------------------------------------------------|
E|-0----7----8---10---------------------------------------------------------|


| /  slide up
| \  slide down
| h  hammer-on
| p  pull-off
| ~  vibrato
| +  harmonic
| x  Mute note
===============================================================================
Suggest correction
comments
print report bad tab
13 comments total. Showing first comments.
0 reply
ctuliebs 37 Sep 30, 2007 06:24 PM

i think what you mean is Drop D am i right??

and that should be
eBGDAD o yeah drop c isnt eBGDAE either

+1 reply
soldiersufferin 10 Oct 07, 2007 03:09 PM

Where's the intro solo?

+1 reply
laxkid2 10 Oct 17, 2007 09:22 PM

i think the tuning is off a bit

guest
You may want to rate the tab now too:
select rating
Wanna post a correction for this tab? Suggest correction