Oops, an error
Loading. Please wait.

Bleeding Tab

version 2
version 2
85,943 views 39 this week
13 commentsread comments
1 2 3 4 5
x 17
add to favorites
launch autoscroll
font size
0
reset
how to read this tab
guitar tuner
Autoscroll
slow
fast
+/-
esc
set tempo
stop
Help us to improve Ultimate-Guitar.com Take our survey!
×
Author
Five Finger Death Punch
The Bleeding
D A D G B E

e|---------------------------------------------------------------|
B|---------------------------------------------------------------|
G|---------12---------13---------10-------------10---------10h12-|
D|--10-10------10-10------10-10--------10--10---------10---------|
A|---------------------------------------------------------------|
E|---------------------------------------------------------------|

e|------------------------------------------------------------------------|
B|------------------------------------------------------------------------|
G|----------12----------13-----------12----------10--------10h12p10--\----|
D|--10-10-------10-10--------10-10--------10-10-------10------------------|
A|------------------------------------------------------------------------|
E|------------------------------------------------------------------------|

e|-------------------------------------------------------------|
B|-------------------------------------------------------------|
G|-------8------8----------------10--------10------------------|
D|--6-6-----6-6------6-6----8-8-------8-8--------88------------|
A|-------------------------------------------------------------|
E|-------------------------------------------------------------|

e|---------------------------------------------------------------|
B|---------------------------------------------------------------|
G|---------12---------13---------10-------------10---------10h12-|
D|--10-10------10-10------10-10--------10--10---------10---------|
A|---------------------------------------------------------------|
E|---------------------------------------------------------------|

e|------------------------------------------------------------------------|
B|------------------------------------------------------------------------|
G|----------12----------13-----------12----------10--------10h12p10--\----|
D|--10-10-------10-10--------10-10--------10-10-------10------------------|
A|------------------------------------------------------------------------|
E|------------------------------------------------------------------------|

e|-------------------------------------------------------------|
B|-------------------------------------------------------------|
G|-------8------8----------------10--------10------------------|
D|--6-6-----6-6------6-6----8-8-------8-8--------88------------|
A|-------------------------------------------------------------|
E|-------------------------------------------------------------|

Guitar Two comes in on the second time
e|------------------------------------|
B|------------------------------------|
G|------------------------------------|
D|---5-5-5-5-5--3-3-3-3-3-1-1-1-1-1---|
A|---5-5-5-5-5--3-3-3-3-1-1-1-1-1-1---|
E|---5-5-5-5-5--3-3-3-3-1-1-1-3-3-3---|
P.m.....................................
Constant strumming pattern listen to song for exact timing

Intro Solo :
e|----13B----13B~-13---11-10---------------------------------|
B|-----------------------------11---11/13--------------------|
G|--------------------------------------------12~~----10~~---|
D|-----------------------------------------------------------|
A|-----------------------------------------------------------|
E|-----------------------------------------------------------|

e|-----------------11--13--13B~~----|
B|---------11--13-------------------|
G|--10-12---------------------------|
D|----------------------------------|
A|----------------------------------|
E|----------------------------------|

e|---13B--11--10--/18----------|
B|-----------------------------|
G|-----------------------------|
D|-----------------------------|
A|-----------------------------|
E|-----------------------------|

e|-----------------10--11-13--/15---13p11-10-------------|
B|---------11-13-------------------------------1311-10---|
G|--10-12------------------------------------------------|
D|-------------------------------------------------------|
A|-------------------------------------------------------|
E|-------------------------------------------------------|
Sweep

Then Verse
"I Remember when all the games began, I remember every little lie "
e|---------------------------------------------------------------|
B|---------------------------------------------------------------|
G|---------12---------13---------10-------------10---------10h12-|
D|--10-10------10-10------10-10--------10--10---------10---------|
A|---------------------------------------------------------------|
E|---------------------------------------------------------------|

e|------------------------------------------------------------------------|
B|------------------------------------------------------------------------|
G|----------12----------13-----------12----------10--------10h12p10--\----|
D|--10-10-------10-10--------10-10--------10-10-------10------------------|
A|------------------------------------------------------------------------|
E|------------------------------------------------------------------------|

e|-------------------------------------------------------------|
B|-------------------------------------------------------------|
G|-------8------8----------------10--------10------------------|
D|--6-6-----6-6------6-6----8-8-------8-8--------88------------|
A|-------------------------------------------------------------|
E|-------------------------------------------------------------|

e|---------------------------------------------------------------|
B|---------------------------------------------------------------|
G|---------12---------13---------10-------------10---------10h12-|
D|--10-10------10-10------10-10--------10--10---------10---------|
A|---------------------------------------------------------------|
E|---------------------------------------------------------------|

e|------------------------------------------------------------------------|
B|------------------------------------------------------------------------|
G|----------12----------13-----------12----------10--------10h12p10--\----|
D|--10-10-------10-10--------10-10--------10-10-------10------------------|
A|------------------------------------------------------------------------|
E|------------------------------------------------------------------------|

e|-------------------------------------------------------------|
B|-------------------------------------------------------------|
G|-------8------8----------------10--------10------------------|
D|--6-6-----6-6------6-6----8-8-------8-8--------88------------|
A|-------------------------------------------------------------|
E|-------------------------------------------------------------|

************************************

| h  Hammer-on
| p  Pull-off
| \  Slide down
| /  Slide up
| ~  Vibrato

************************************
Suggest correction
comments
print report bad tab
13 comments total. Showing first comments.
-1 reply
sTx 120 Jan 16, 2008 01:24 PM

This is a sweet intro, to a sweet song.
I haven't played this tab yet, but kudos for writing it out, anyway! =D

+2 reply
mister_crowley 81 Jan 27, 2008 11:01 AM

Dude what have you done to the solo.. it is incorrect.

Good song though, and thanks for trying.

0 reply
Will E. Ramone 10 Feb 22, 2008 06:51 PM

This is pretty good. The solo is slightly off at the end.

And the chords in drop D should look like this

Intro chords: (figure out the strumming, with some palm muting)
--------------------------------------------------------------
--------------------------------------------------------------
-5------------------------------------------------------------
-5-----6--8---------------------------------------------------
-3-----6--8---------------------------------------------------
-------6--8---------------------------------------------------

and in the chorus:
----------------------------------------------------------
----------------------------------------------------------
-5-5-5--5-------5-5-5--5-------5-5-5--5-------------------
-5-5-5--5-------5-5-5--5-------5-5-5--5--------1-1--3-3---
-3-3-3--3--x-x--3-3-3--3--x-x--3-3-3--3--x-x-0-1-1--3-3---
-----------x-x------------x-x------------x-x-0-1-1--3-3---

And the chords under the solo and during the bridge:
------------------------------------------------------------------
------------------------------------------------------------------
-5-(let ring)-5-5-5-----------------------------------------------
-5------------5-5-5------5-(let ring)-5-5-5------1-(let ring)1-1-1
-3------------3-3-3-x-x--5------------5-5-5-x-x--1-----------1-1-1
--------------------x-x--5------------5-5-5-x-x--1-----------1-1-1
* * * * * *

----------------
----------------
------3---------
------3---------
-x-x--1---------
-x-x------------

guest
You may want to rate the tab now too:
select rating
Wanna post a correction for this tab? Suggest correction