Oops, an error
Loading. Please wait.

Bleeding Tab

version 3
version 3
10,868 views 9 this week
1 commentread comment
1 2 3 4 5
x 4
add to favorites
launch autoscroll
font size
0
reset
how to read this tab
guitar tuner
Autoscroll
slow
fast
+/-
esc
set tempo
stop
Help us to improve Ultimate-Guitar.com Take our survey!
×
Author
Difficulty
Tuning
novice
C G C F A D
Artist: Five Finger Death Punch
Song: The Bleeding
Tuning: Drop C (C G C F A d)
Tabbed By: Shmiggims

I know it's not great but it's one of my first. So tell me what you think.

 
Intro/Verse 
d|---------------------------------------------------------------| 
A|---------------------------------------------------------------|
F|---------14--------15--------14--------12--------12h14---------|
C|--12--12----12--12----12--12----12--12----12--12---------------|
G|---------------------------------------------------------------|
C|---------------------------------------------------------------|

d|------------------------------------------------------------------------------------|
A|------------------------------------------------------------------------------------|
F|------10-----10-----10-----10-----10/------12-------12-------12-------12-------12/--|
C|--8-8----8-8----8-8----8-8----8-8----10-10----10-10----10-10----10-10----10-10------| 
G|------------------------------------------------------------------------------------|
C|------------------------------------------------------------------------------------|


Guitar two comes in on the second time
d|------------------------------------|
A|------------------------------------|
F|------------------------------------|
C|---7-7-7-7-7--5-5-5-5-5-3-3-3-3-3---|
G|---7-7-7-7-7--5-5-5-5-3-3-3-3-3-3---|
C|---7-7-7-7-7--5-5-5-5-3-3-3-5-5-5---|
P.M..................................
[listen to the song for correct strumming patter]


Intro Solo:
d|----15b----15b~-15---13-12---------------------------------|
A|-----------------------------13---13/15--------------------|
F|--------------------------------------------14~~----12~~---|
C|-----------------------------------------------------------|
G|-----------------------------------------------------------|
C|-----------------------------------------------------------|

d|-----------------13--15--15b~~----|
A|---------13--15-------------------|
F|--12-14---------------------------|
C|----------------------------------|
G|----------------------------------|
C|----------------------------------|

d|---15b--13--12--/20----------|
A|-----------------------------|
F|-----------------------------|
C|-----------------------------|
G|-----------------------------|
C|-----------------------------|

d|-----------------12--14-15--/17---15p13-12--------------|
A|---------13-15-------------------------------15-13-12---|
F|--12-14-------------------------------------------------|
C|--------------------------------------------------------|
G|--------------------------------------------------------|
C|--------------------------------------------------------|

Play the verse again

Chorus:
d|---------------------------------|
A|---------------------------------|
F|---------------------------------|
C|---------------------------------|
G|-000-xx-000-xx-000-xx-033335555--|
C|-000-xx-000-xx-000-xx-033335555--|
Suggest correction
comments
print report bad tab
1 comment total.
0 reply
Clypse 78 Dec 04, 2007 08:22 PM

Your intro is wrong. Most people would play that faster than it looks.And the very last measure where its all open then
its muted notes. Thats just the bass's part.

guest
You may want to rate the tab now too:
select rating
Wanna post a correction for this tab? Suggest correction