Oops, an error
Loading. Please wait.

Bleeding Tab

version 4
version 4
75,365 views 189 this week
6 commentsread comments
1 2 3 4 5
accurate
x 9
add to favorites
launch autoscroll
font size
0
reset
how to read this tab
guitar tuner
Tab Pro tools
  • play this tab
  • loop segment
  • change instrument
  • show fretboard
  • metronome
Autoscroll
slow
fast
+/-
esc
set tempo
stop
Contributor
Artist: Five Finger Death Punch
Song: The Bleeding
Tuning: Drop C (C G C F A d)
Tabbed By: c0z420

I dont really know how people can be so TONEDEAF
when it comes to tabbing this song out..geez people.

Intro/Verse
d|---------------------------------------------------------------|
A|---------------------------------------------------------------|
F|---------14--------15--------14--------12--------12h14---------|
C|--12--12----12--12----12--12----12--12----12--12---------------|
G|---------------------------------------------------------------|
C|---------------------------------------------------------------|

d|------------------------------------------------------------------------------------|
A|------------------------------------------------------------------------------------|
F|------10-----10-----10-----10-----10/------12-------12-------12-------12-------12/--|
C|--8-8----8-8----8-8----8-8----8-8----10-10----10-10----10-10----10-10----10-10------|
G|------------------------------------------------------------------------------------|
C|------------------------------------------------------------------------------------|

Guitar 2: comes in on the second time
d|------------------------------------|
A|------------------------------------|
F|--------------3-3-3-3-3-5-5-5-5-5---|
C|---0-0-0-0-0--3-3-3-3-3-5-5-5-5-5---|
G|---0-0-0-0-0--1-1-1-1-1-3-3-3-3-3---|
C|---0-0-0-0-0------------------------|
P.M..................................

Intro 2 Solo:
d|----17b----17b~-15---13-12---------------------------------|
A|-----------------------------13---13/15--------------------|
F|--------------------------------------------14~~----12~~---|
C|-----------------------------------------------------------|
G|-----------------------------------------------------------|
C|-----------------------------------------------------------|

d|-----------------15--17--17b~~----|
A|---------13--15-------------------|
F|--12-14---------------------------|
C|----------------------------------|
G|----------------------------------|
C|----------------------------------|

d|---17b--15--13--12----/20~---------|
A|-----------------------------------|
F|-----------------------------------|
C|-----------------------------------|
G|-----------------------------------|
C|-----------------------------------|

d|-----------------12--14-15--/17---15p13-12---------------------|
A|---------13-15-----------------------------------22^-22^^-21~--|
F|--12-14--------------------------------------------------------|
C|---------------------------------------------------------------|
G|---------------------------------------------------------------|
C|---------------------------------------------------------------|
pm..............................................


Fill/VERSE/Breakdown:
d|-------------------------------------|
A|-------------------------------------|
F|-----------------5~------------------|
C|-----------------5~------------------|
G|--0----7----3----3~------------------|
C|--0~---7~---3~-----------------------|

Chorus: Guitar 1 & 2
d|---------------------------------|
A|---------------------------------|
F|---------------------------------|
C|---------------------------------|
G|-000-xx-000-xx-000-xx-033335555--|
C|-000-xx-000-xx-000-xx-033335555--|

BREAKDOWN: (3:24)
d|-------------------------------------|
A|-------------------------------------|
F|-----------------5~------------------|
C|-----------------5~------------------|
G|--0----7----3----3~------------------|
C|--0~---7~---3~-----------------------|

Breakdown: Guitar 2
d|-------------------------------------|
A|-------------------------------------|
F|-------------------------------------|
C|---12~---14~---15-----15-14~---------|
G|-------------------------------------|
C|-------------------------------------|


End with Clean verse:
comments
print report bad tab
6 comments total. Showing first comments.
-2 reply
CmS wrote on March 20 2008, 11:38 pm

How come nobody realizes that this song is in Drop B?

0 reply
facemelter420 wrote on April 6 2008, 02:03 pm

the into/solo isnt separated into the right measures

-1 reply
Lowman75703 wrote on April 10 2008, 02:48 pm

i always thought it was in drop d. and i don't think that the chorus riff is played that fast, i think it's the percussion that makes it sound that fast.

I want to post or [tab]
guest
You may want to rate the tab now too:
select rating
Please do not post tabs as comments. Select "correction" instead!