Oops, an error
Loading. Please wait.

Bleeding Tab

version 5
version 5
10,668 views 1 this week
6 commentsread comments
1 2 3 4 5
worth learning
x 3
add to favorites
launch autoscroll
font size
0
reset
how to read this tab
guitar tuner
Tab Pro tools
  • play this tab
  • loop segment
  • change instrument
  • show fretboard
  • metronome
×
Best way to learn
"Bleeding"
Autoscroll
slow
fast
+/-
esc
set tempo
stop
Contributor
Tuning
C G C F A D

D|----------------------------------------------------------|
A|----10----11---10---8----8/10-----------------------------|
F|--------------------------------x2------------------------|
C|-12----12---12---12---12----------------------------------|
G|----------------------------------------------------------|
C|----------------------------------------------------------|

D|-----------------------------------------------------|
A|----6----6---6---6---6/---8----8----8-----8----------|
F|-----------------------------------------------------|
C|-8----8----8---8---8/--10---10---10----10------------|
G|-----------------------------------------------------|
C|-----------------------------------------------------|

D|--------------------------------------------------------|
A|--------------------------------------------------------|
F|--------------------------------------------------------|
C|--------------------------------------------------------|
G|-00--00--00--00--00--33--33--33--33--55--55--55--55-----|
C|-00--00--00--00--00--33--33--33--33--55--55--55--55-----|


D|-15b~--15--13--12----------------------------------|
A|-------------------13--12--------------------------|
F|----------------------------14~~--12~~-------------|
C|---------------------------------------------------|
G|---------------------------------------------------|
C|---------------------------------------------------|


D|------------------13--15b~|---15b--13--12--20-------------|
A|----------13--15----------|-------------------------------|
F|-12--14-------------------|-------------------------------|
C|--------------------------|-------------------------------|
G|--------------------------|-------------------------------|
C|--------------------------|-------------------------------|


D|--------------12-14---17----15-13-12------------------|
A|-------13-15---------------------------15--13--12-----|
F|-12-14------------------------------------------------|
C|------------------------------------------------------|
G|------------------------------------------------------|
C|------------------------------------------------------|

D|----------------------------------------------------|
A|----------------------------------------------------|
F|----------------------------------------------------|
C|----------------------------------------------------|
G|-00-0--00--00-0--00--00-0--00---033335555-----------|
C|-00-0--00--00-0--00--00-0--00---033335555-----------|
         ..        ..        ..

And thats it.....
comments
We did not receive enough feedback on this tab! Please rate:
print report bad tab
1 2 3 4 5
6 comments total. Showing first comments.
+1 reply
Clypse wrote on December 5 2007, 04:44 pm

I want to apologize for spelling the song wrong but this should be like 95% correct

0 reply
TheUsedRocker wrote on February 10 2008, 05:57 pm

the intro is actually played second time:
D||---------------------------------------|
A||-------10-----11-----10-----8------8-10|-8
F||---------------------------------------|
C||--12-12--12-12--12-12--12-12--12-12----|
G||---------------------------------------|
C||---------------------------------------|
x2

and the 8th fret on middle C string is doubled too
Other than that, this tab is almost perfect. good work :)

0 reply
Clypse wrote on February 17 2008, 03:40 pm

Oh, your right, I didnt hear that part. Thanks!!

I want to post or [tab]
guest
You may want to rate the tab now too:
select rating
Please do not post tabs as comments. Select "correction" instead!