Oops, an error
Loading. Please wait.

Bleeding Tab

version 6
version 6
99,157 views 57 this week
16 commentsread comments
1 2 3 4 5
excellent!
x 47
add to favorites
launch autoscroll
font size
0
reset
how to read this tab
guitar tuner
Autoscroll
slow
fast
+/-
esc
set tempo
stop
Help us to improve Ultimate-Guitar.com Take our survey!
×
Author
Difficulty
Tuning
intermediate
C G C F A D
Artist: Five Finger Death Punch
Song: The Bleeding 
Tab by: HPIDRIFTERX@yahoo.com (HPIDRIFTERX)

Check out my other tabs for: Five Finger Death Punch - Far From Home
                             Rev Theory - Far From Over 

Key: Drop C (C,G,C,F,A,D)
 
Guitar 1 (g1) - Clean, Slight Reverb
Guitar 2 (g2) - Clean, Slight Reverb
Guitar 3 (g3) - Heavy Distortion



[Intro]
        
D|----------------------------------------------------------|g1
A|----------------------------------------------------------|
F|--------14-------15-------14-------12-------12h14---------|
C|--10/12----12-12----12-12----12-12----12-12---------------|
G|----------------------------------------------------------|
C|----------------------------------------------------------|

D|----------------------------------------------------------|g1
A|----------------------------------------------------------|
F|-----14-------15-------14-------12-------12h14p12---------|
C|--12----12-12----12-12----12-12----12-12------------------|
G|----------------------------------------------------------|
C|----------------------------------------------------------|

D|----------------------------------------------------------|g1
A|----------------------------------------------------------|
F|----------------------------------------------------------|
C|------10-----10-----10-----10----10-----------------------|
G|--8-8----8-8----8-8----8-8-----8----8---------------------|
C|----------------------------------------------------------|

D|----------------------------------------------------------|g1
A|----------------------------------------------------------|
F|----------------------------------------------------------|
C|--------12-------12-------12-------12-----12--------------|
G|--10-10----10-10----10-10----10-10-----10----10-----------|
C|----------------------------------------------------------|   

D|----------------------------------------------------------|g1
A|----------------------------------------------------------|
F|-----14-------15-------14-------12-------12h14------------|
C|--12----12-12----12-12----12-12----12-12------------------|
G|----------------------------------------------------------|
C|----------------------------------------------------------|
        
        D|----------------------------------------------------------|g2
        A|----------------------------------------------------------|
        F|----------------------------------------------------------|
        C|--10/12~----------------------------------------15-15h17--|
        G|----------------------------------------------------------|
        C|----------------------------------------------------------|

D|----------------------------------------------------------|g1
A|----------------------------------------------------------|
F|-----14-------15-------14-------12-------12h14p12---------|
C|--12----12-12----12-12----12-12----12-12------------------|
G|----------------------------------------------------------|
C|----------------------------------------------------------|

        D|----------------------------------------------------------|g2
        A|----------------------------------------------------------|
        F|----------------------------------------------------------|
        C|--10/12~----------------------------------------15-15h17--|
        G|----------------------------------------------------------|
        C|----------------------------------------------------------|
        
D|----------------------------------------------------------|g1
A|----------------------------------------------------------|
F|----------------------------------------------------------|
C|------10-----10-----10-----10----10-----------------------|
G|--8-8----8-8----8-8----8-8-----8----8---------------------|
C|----------------------------------------------------------|

        D|----------------------------------------------------------|g2
        A|----------------------------------------------------------|
        F|----------------------------------------------------------|
        C|--10/12~----------------------------------------15-15h17--|
        G|----------------------------------------------------------|
        C|----------------------------------------------------------|
        
D|----------------------------------------------------------|g1
A|----------------------------------------------------------|
F|----------------------------------------------------------|
C|--------12-------12-------12-------12-----12--------------|
G|--10-10----10-10----10-10----10-10-----10----10-----------|
C|----------------------------------------------------------|
        
        D|----------------------------------------------------------|g2
        A|----------------------------------------------------------|
        F|----------------------------------------------------------|
        C|--10/12~----------------------------------15h17-15/14-12--|
        G|----------------------------------------------------------|
        C|----------------------------------------------------------|

D|----------------------------------------------------------|g1
A|----------------------------------------------------------|
F|-----14-------15-------14-------12-------12h14------------|
C|--12----12-12----12-12----12-12----12-12------------------|
G|----------------------------------------------------------|
C|----------------------------------------------------------|

        D|----------------------------------------------------------|g2
        A|----------------------------------------------------------|
        F|----------------------------------------------------------|
        C|--10/12~----------------------------------------15-15h17--|
        G|----------------------------------------------------------|
        C|----------------------------------------------------------|
        
D|----------------------------------------------------------|g1
A|----------------------------------------------------------|
F|-----14-------15-------14-------12-------12h14p12---------|
C|--12----12-12----12-12----12-12----12-12------------------|
G|----------------------------------------------------------|
C|----------------------------------------------------------|
        
        D|----------------------------------------------------------|g2
        A|----------------------------------------------------------|
        F|----------------------------------------------------------|
        C|--10/12~-------------------------------------------17-15--|
        G|----------------------------------------------------------|
        C|----------------------------------------------------------|

D|----------------------------------------------------------|g1
A|----------------------------------------------------------|
F|----------------------------------------------------------|
C|------10-----10-----10-----10----10-----------------------|
G|--8-8----8-8----8-8----8-8-----8----8---------------------|
C|----------------------------------------------------------|

        D|----------------------------------------------------------|g2
        A|----------------------------------------------------------|   
        F|---------------------------------------------14-15-14-12--|
        C|--12h14/15~----------------------------12h14--------------|
        G|----------------------------------------------------------|
        C|----------------------------------------------------------|

D|----------------------------------------------------------|g1
A|----------------------------------------------------------|
F|----------------------------------------------------------|
C|--------12-------12-------12-------12-----12--------------|
G|--10-10----10-10----10-10----10-10-----10----10-----------|
C|----------------------------------------------------------|

        D|----------------------------------------------------------|g2
        A|----------------------------------------------------------|
        F|----------------------------------------------------------|
        C|--15-15p14-14-----------------------15-17-15\14-10-10/12--|
        G|----------------------------------------------------------|
        C|----------------------------------------------------------|

D|----------------------------------------------------------|g1
A|----------------------------------------------------------|
F|-----14-------15-------14-------12-------12h14------------|
C|--12----12-12----12-12----12-12----12-12------------------|
G|----------------------------------------------------------|
C|----------------------------------------------------------|

        D|----------------------------------------------------------|g2
        A|----------------------------------------------------------|
        F|----------------------------------------------------------|
        C|--10/12~----------------------------------------15-15h17--|
        G|----------------------------------------------------------|
        C|----------------------------------------------------------|
        
                D|--------------------------------------------------------|g3
                A|--------------------------------------------------------|
                F|--------------------------------------------------------|
                C|--0-xx0-xx0-xx0-xx-00-----------------------------------|
                G|--0-xx0-xx0-xx0-xx-00-----------------------------------|
                C|--0-xx0-xx0-xx0-xx-00-----------------------------------|

D|----------------------------------------------------------|g1
A|----------------------------------------------------------|
F|-----14-------15-------14-------12-------12h14p12---------|
C|--12----12-12----12-12----12-12----12-12------------------|
G|----------------------------------------------------------|
C|----------------------------------------------------------|
        
        D|----------------------------------------------------------|g2
        A|----------------------------------------------------------|
        F|----------------------------------------------------------|
        C|--10/12~-------------------------------------------17-15--|
        G|----------------------------------------------------------|
        C|----------------------------------------------------------|

                D|--------------------------------------------------------|g3
                A|--------------------------------------------------------|
                F|--------------------------------------------------------|
                C|--0-xx0-xx0-xx0-xx-00-----------------------------------|
                G|--0-xx0-xx0-xx0-xx-00-----------------------------------|
                C|--0-xx0-xx0-xx0-xx-00-----------------------------------|

D|----------------------------------------------------------|g1
A|----------------------------------------------------------|
F|----------------------------------------------------------|
C|------10-----10-----10-----10----10-----------------------|
G|--8-8----8-8----8-8----8-8-----8----8---------------------|
C|----------------------------------------------------------|

        D|----------------------------------------------------------|g2
        A|----------------------------------------------------------|   
        F|---------------------------------------------14-15-14-12--|
        C|--12h14/15~----------------------------12h14--------------|
        G|----------------------------------------------------------|
        C|----------------------------------------------------------|

                D|--------------------------------------------------------|g3
                A|--------------------------------------------------------|
                F|--3-xx3-xx3-xx3-xx-33-----------------------------------|
                C|--3-xx3-xx3-xx3-xx-33-----------------------------------|
                G|--1-xx1-xx1-xx1-xx-11-----------------------------------|
                C|--------------------------------------------------------|

D|----------------------------------------------------------|g1
A|----------------------------------------------------------|
F|----------------------------------------------------------|
C|--------12-------12-------12-------12-----12--------------|
G|--10-10----10-10----10-10----10-10-----10----10-----------|
C|----------------------------------------------------------|

        D|----------------------------------------------------------|g2
        A|----------------------------------------------------------|
        F|----------------------------------------------------------|
        C|--15-15p14-14-----------------------15-17-15\14-10-10/12--|
        G|----------------------------------------------------------|
        C|----------------------------------------------------------|
        
                D|--------------------------------------------------------|g3
                A|--------------------------------------------------------|
                F|--5-xx5-xx5-xx5-xx-55-----------------------------------|
                C|--5-xx5-xx5-xx5-xx-55-----------------------------------|
                G|--3-xx3-xx3-xx3-xx-33-----------------------------------|
                C|--------------------------------------------------------|

D|--15b17-------17-15-13-12---------------------------------|g1
A|-------------------------/13-13~--/13-13-15---------------|
F|----------------------------------------------------------|
C|----------------------------------------------------------|
G|----------------------------------------------------------|
C|----------------------------------------------------------|

                D|--------------------------------------------------------|g3
                A|--------------------------------------------------------|
                F|--------------------------------------------------------|
                C|--0---------------xx30-7--------------xx77--------------|
                G|--0---------------xx30-7--------------xx77--------------|
                C|--0---------------xx30-7--------------xx77--------------|

D|------------------------------------------------------13--|g1
A|--10~---------/10-10-8-8~---------------------------15----|
F|--------------------------------------------------14------|
C|---------------------------------------------12-15--------|
G|----------------------------------------------------------|
C|----------------------------------------------------------|   

                D|--------------------------------------------------------|g3
                A|--------------------------------------------------------|
                F|--------------------------------------------------------|
                C|--3---------------xx33-10-------------------------------|
                G|--3---------------xx33-10-------------------------------|
                C|--3---------------xx33-10-------------------------------|

D|--15b17--------17-15-13-12-13/20~-----------171817--------|g1
A|------------------------------------------18------18------|
F|----------------------------------------19----------19----|
C|--------------------------------------19--------------19--|
G|---------------------------------17h20--------------------|
C|----------------------------------------------------------|   

                D|--------------------------------------------------------|g3
                A|--------------------------------------------------------|
                F|--------------------------------------------------------|
                C|--0---------------xx30-7--------------xx77--------------|
                G|--0---------------xx30-7--------------xx77--------------|
                C|--0---------------xx30-7--------------xx77--------------|

D|--20b22-22-22----22-22-20-20~-----------------------------|g1
A|----------------------------------------------------------|
F|----------------------------------------------------------|
C|----------------------------------------------------------|
G|----------------------------------------------------------|
C|----------------------------------------------------------|   

                D|--------------------------------------------------------|g3
                A|--------------------------------------------------------|
                F|--------------------------------------------------------|
                C|--3---------------xx33-10-------------------------------|
                G|--3---------------xx33-10-------------------------------|
                C|--3---------------xx33-10-------------------------------|

[Verse 1]

The Lieeeeesssss...
        
                D|--------------------------------------------------------|g3
                A|--------------------------------------------------------|
                F|--------------------------------------------------------|
                C|--0-00-xx-0-00-xx------0-00-xx-0-3333-5555--------------|
                G|--0-00-xx-0-00-xx------0-00-xx-0-3333-5555--------------|
                C|--0-00-xx-0-00-xx------0-00-xx-0-3333-5555--------------|

                D|--------------------------------------------------------|g3
                A|--------------------------------------------------------|
                F|--------------------------------------------------------|
                C|--0-00-xx-0-00-xx------0-00-xx-0-3333-5555--------------|
                G|--0-00-xx-0-00-xx------0-00-xx-0-3333-5555--------------|
                C|--0-00-xx-0-00-xx------0-00-xx-0-3333-5555--------------|

I remember when...

D|----------------------------------------------------------|g1
A|----------------------------------------------------------|
F|-----14-------15-------14-------12-------12h14------------|
C|--12----12-12----12-12----12-12----12-12------------------|
G|----------------------------------------------------------|
C|----------------------------------------------------------|           

                D|--------------------------------------------------------|g3
                A|--------------------------------------------------------|
                F|--------------------------------------------------------|
                C|--0-----------------------------------------------------|
                G|--0-----------------------------------------------------|
                C|--0-----------------------------------------------------|

all the games began...

D|----------------------------------------------------------|g1
A|----------------------------------------------------------|
F|-----14-------15-------14-------12-------12h14p12---------|
C|--12----12-12----12-12----12-12----12-12------------------|
G|----------------------------------------------------------|
C|----------------------------------------------------------|

                D|--------------------------------------------------------|g3
                A|--------------------------------------------------------|
                F|--------------------------------------------------------|
                C|-(0)----------------------------------------------------|
                G|-(0)----------------------------------------------------|
                C|-(0)----------------------------------------------------|

Remember every little lie...

D|----------------------------------------------------------|g1
A|----------------------------------------------------------|
F|----------------------------------------------------------|
C|------10-----10-----10-----10----10-----------------------|
G|--8-8----8-8----8-8----8-8-----8----8---------------------|
C|----------------------------------------------------------|           

                D|--------------------------------------------------------|g3
                A|--------------------------------------------------------|
                F|--------------------------------------------------------|
                C|--8-----------------------------------------------------|
                G|--8-----------------------------------------------------|
                C|--8-----------------------------------------------------|

and every last goodbye...

D|----------------------------------------------------------|g1
A|----------------------------------------------------------|
F|----------------------------------------------------------|
C|--------12-------12-------12-------12-----12--------------|
G|--10-10----10-10----10-10----10-10-----10----10-----------|
C|----------------------------------------------------------|                   

                D|--------------------------------------------------------|g3
                A|--------------------------------------------------------|
                F|--------------------------------------------------------|
                C|--10----------------------------------------------------|
                G|--10----------------------------------------------------|
                C|--10----------------------------------------------------|

The promises you broke...

D|----------------------------------------------------------|g1
A|----------------------------------------------------------|
F|-----14-------15-------14-------12-------12h14------------|
C|--12----12-12----12-12----12-12----12-12------------------|
G|----------------------------------------------------------|
C|----------------------------------------------------------|           

        D|----------------------------------------------------------|g2
        A|----------------------------------------------------------|
        F|----------------------------------------------------------|
        C|--10/12~----------------------------------------15-15h17--|
        G|----------------------------------------------------------|
        C|----------------------------------------------------------|
                
                D|--------------------------------------------------------|g3
                A|--------------------------------------------------------|
                F|--------------------------------------------------------|
                C|--0-----------------------------------------------------|
                G|--0-----------------------------------------------------|
                C|--0-----------------------------------------------------|

words you chocked on...

D|----------------------------------------------------------|g1
A|----------------------------------------------------------|
F|-----14-------15-------14-------12-------12h14p12---------|
C|--12----12-12----12-12----12-12----12-12------------------|
G|----------------------------------------------------------|
C|----------------------------------------------------------|

        D|----------------------------------------------------------|g2
        A|----------------------------------------------------------|
        F|----------------------------------------------------------|
        C|--10/12~----------------------------------------15-15h17--|
        G|----------------------------------------------------------|
        C|----------------------------------------------------------|
                
                D|--------------------------------------------------------|g3
                A|--------------------------------------------------------|
                F|--------------------------------------------------------|
                C|--0-----------------------------------------------------|
                G|--0-----------------------------------------------------|
                C|--0-----------------------------------------------------|

And I never walked away...

D|----------------------------------------------------------|g1
A|----------------------------------------------------------|
F|----------------------------------------------------------|
C|------10-----10-----10-----10----10-----------------------|
G|--8-8----8-8----8-8----8-8-----8----8---------------------|
C|----------------------------------------------------------|           

        D|----------------------------------------------------------|g2
        A|----------------------------------------------------------|
        F|----------------------------------------------------------|
        C|--10/12~----------------------------------------15-15h17--|
        G|----------------------------------------------------------|
        C|----------------------------------------------------------|

                D|--------------------------------------------------------|g3
                A|--------------------------------------------------------|
                F|--------------------------------------------------------|
                C|--8-----------------------------------------------------|
                G|--8-----------------------------------------------------|
                C|--8-----------------------------------------------------|

it's still a mystery to me...

D|----------------------------------------------------------|g1
A|----------------------------------------------------------|
F|----------------------------------------------------------|
C|--------12-------12-------12-------12-----12--------------|
G|--10-10----10-10----10-10----10-10-----10----10-----------|
C|----------------------------------------------------------|                   

        D|----------------------------------------------------------|g2
        A|----------------------------------------------------------|
        F|----------------------------------------------------------|
        C|--10/12~----------------------------------15h17-15/14-12--|
        G|----------------------------------------------------------|
        C|----------------------------------------------------------|   
                
                D|--------------------------------------------------------|g3
                A|--------------------------------------------------------|
                F|--------------------------------------------------------|
                C|--10----------------------------------------------------|
                G|--10----------------------------------------------------|
                C|--10----------------------------------------------------|

[Pre-Chorus]

Well I'm so...  

D|----------------------------------------------------------|g1
A|----------------------------------------------------------|
F|-----14-------15-------14-------12-------12h14------------|
C|--12----12-12----12-12----12-12----12-12------------------|
G|----------------------------------------------------------|
C|----------------------------------------------------------|

        D|----------------------------------------------------------|g2
        A|----------------------------------------------------------|
        F|----------------------------------------------------------|
        C|--10/12~----------------------------------------15-15h17--|
        G|----------------------------------------------------------|
        C|----------------------------------------------------------|
                
                D|--------------------------------------------------------|g3
                A|--------------------------------------------------------|
                F|--------------------------------------------------------|
                C|--0-x0-x0-x0-x-00---------------------------------------|
                G|--0-x0-x0-x0-x-00---------------------------------------|
                C|--0-x0-x0-x0-x-00---------------------------------------|

emmmmmmpppttyyy...

D|----------------------------------------------------------|g1
A|----------------------------------------------------------|
F|-----14-------15-------14-------12-------12h14p12---------|
C|--12----12-12----12-12----12-12----12-12------------------|
G|----------------------------------------------------------|
C|----------------------------------------------------------|

        D|----------------------------------------------------------|g2
        A|----------------------------------------------------------|
        F|----------------------------------------------------------|
        C|--10/12~----------------------------------------15-15h17--|
        G|----------------------------------------------------------|
        C|----------------------------------------------------------|
                
                D|--------------------------------------------------------|g3
                A|--------------------------------------------------------|
                F|--------------------------------------------------------|
                C|--0-x0-x0-x0-x-00---------------------------------------|
                G|--0-x0-x0-x0-x-00---------------------------------------|
                C|--0-x0-x0-x0-x-00---------------------------------------|

I'm bettter off without you...

D|----------------------------------------------------------|g1
A|----------------------------------------------------------|
F|----------------------------------------------------------|
C|------10-----10-----10-----10----10-----------------------|
G|--8-8----8-8----8-8----8-8-----8----8---------------------|
C|----------------------------------------------------------|   

        D|----------------------------------------------------------|g2
        A|----------------------------------------------------------|
        F|----------------------------------------------------------|
        C|--10/12~----------------------------------------15-15h17--|
        G|----------------------------------------------------------|
        C|----------------------------------------------------------|
                
                D|--------------------------------------------------------|g3
                A|--------------------------------------------------------|
                F|--------------------------------------------------------|
                C|--8-x8-x8-x8-x-88---------------------------------------|
                G|--8-x8-x8-x8-x-88---------------------------------------|
                C|--8-x8-x8-x8-x-88---------------------------------------|

And you're better off without me...

D|----------------------------------------------------------|g1
A|----------------------------------------------------------|
F|----------------------------------------------------------|
C|--------12-------12-------12-------12-----12--------------|
G|--10-10----10-10----10-10----10-10-----10----10-----------|
C|----------------------------------------------------------|   

        D|----------------------------------------------------------|g2
        A|----------------------------------------------------------|
        F|----------------------------------------------------------|
        C|--10/12~----------------------------------15h17-15/14-12--|
        G|----------------------------------------------------------|
        C|----------------------------------------------------------|

                D|--------------------------------------------------------|g3
                A|--------------------------------------------------------|
                F|--------------------------------------------------------|
                C|--10-x10-x10-x10-x-1010---------------------------------|
                G|--10-x10-x10-x10-x-1010---------------------------------|
                C|--10-x10-x10-x10-x-1010---------------------------------|

Well, you're so...

D|----------------------------------------------------------|g1
A|----------------------------------------------------------|
F|-----14-------15-------14-------12-------12h14------------|
C|--12----12-12----12-12----12-12----12-12------------------|
G|----------------------------------------------------------|
C|----------------------------------------------------------|

        D|----------------------------------------------------------|g2
        A|----------------------------------------------------------|
        F|----------------------------------------------------------|
        C|--10/12~----------------------------------------15-15h17--|
        G|----------------------------------------------------------|
        C|----------------------------------------------------------|

                D|--------------------------------------------------------|g3
                A|--------------------------------------------------------|
                F|--------------------------------------------------------|
                C|--0-x0-x0-x0-x-00---------------------------------------|
                G|--0-x0-x0-x0-x-00---------------------------------------|
                C|--0-x0-x0-x0-x-00---------------------------------------|

uunnnnccclleeaannn...

D|----------------------------------------------------------|g1
A|----------------------------------------------------------|
F|-----14-------15-------14-------12-------12h14p12---------|
C|--12----12-12----12-12----12-12----12-12------------------|
G|----------------------------------------------------------|
C|----------------------------------------------------------|

        D|----------------------------------------------------------|g2
        A|----------------------------------------------------------|
        F|----------------------------------------------------------|
        C|--10/12~-------------------------------------------17-15--|
        G|----------------------------------------------------------|
        C|----------------------------------------------------------|
                
                D|--------------------------------------------------------|g3
                A|--------------------------------------------------------|
                F|--------------------------------------------------------|
                C|--0-x0-x0-x0-x-00---------------------------------------|
                G|--0-x0-x0-x0-x-00---------------------------------------|
                C|--0-x0-x0-x0-x-00---------------------------------------|

I'm better off without you...

D|----------------------------------------------------------|g1
A|----------------------------------------------------------|
F|----------------------------------------------------------|
C|------10-----10-----10-----10----10-----------------------|
G|--8-8----8-8----8-8----8-8-----8----8---------------------|
C|----------------------------------------------------------|

        D|----------------------------------------------------------|g2
        A|----------------------------------------------------------|   
        F|---------------------------------------------14-15-14-12--|
        C|--12h14/15~----------------------------12h14--------------|
        G|----------------------------------------------------------|
        C|----------------------------------------------------------|
                
                D|--------------------------------------------------------|g3
                A|--------------------------------------------------------|
                F|--------------------------------------------------------|
                C|--8-x8-x8-x8-x-88---------------------------------------|
                G|--8-x8-x8-x8-x-88---------------------------------------|
                C|--8-x8-x8-x8-x-88---------------------------------------|

and your better off without me...

D|----------------------------------------------------------|g1
A|----------------------------------------------------------|
F|----------------------------------------------------------|
C|--------12-------12-------12-------12-----12--------------|
G|--10-10----10-10----10-10----10-10-----10----10-----------|
C|----------------------------------------------------------|   

        D|----------------------------------------------------------|g2
        A|----------------------------------------------------------|
        F|----------------------------------------------------------|
        C|--15-15p14-14-----------------------15-17-15\14-10-10/12--|
        G|----------------------------------------------------------|
        C|----------------------------------------------------------|

                D|--------------------------------------------------------|g3
                A|--------------------------------------------------------|
                F|--------------------------------------------------------|
                C|--10-x10-x10-x10-x-1010---------------------------------|
                G|--10-x10-x10-x10-x-1010---------------------------------|
                C|--10-x10-x10-x10-x-1010---------------------------------|

[Chorus]

The lying, the bleeding, the screaming, was tearing me apart...
        
                D|--------------------------------------------------------|g3
                A|--------------------------------------------------------|
                F|--------------------------------------------------------|
                C|--0-00-xx-0-00-xx------0-00-xx-0-3333-5555--------------|
                G|--0-00-xx-0-00-xx------0-00-xx-0-3333-5555--------------|
                C|--0-00-xx-0-00-xx------0-00-xx-0-3333-5555--------------|

The hatred, deceiving, the bleeding, it's over...

                D|--------------------------------------------------------|g3
                A|--------------------------------------------------------|
                F|--------------------------------------------------------|
                C|--0-00-xx-0-00-xx------0-00-xx-0-3333-5555--------------|
                G|--0-00-xx-0-00-xx------0-00-xx-0-3333-5555--------------|
                C|--0-00-xx-0-00-xx------0-00-xx-0-3333-5555--------------|

[Verse 2]

Paint the mirrors black...                      

D|----------------------------------------------------------|g1
A|----------------------------------------------------------|
F|-----14-------15-------14-------12-------12h14------------|
C|--12----12-12----12-12----12-12----12-12------------------|
G|----------------------------------------------------------|
C|----------------------------------------------------------|           

                D|--------------------------------------------------------|g3
                A|--------------------------------------------------------|
                F|--------------------------------------------------------|
                C|--0-----------------------------------------------------|
                G|--0-----------------------------------------------------|
                C|--0-----------------------------------------------------|

to forget you...

D|----------------------------------------------------------|g1
A|----------------------------------------------------------|
F|-----14-------15-------14-------12-------12h14p12---------|
C|--12----12-12----12-12----12-12----12-12------------------|
G|----------------------------------------------------------|
C|----------------------------------------------------------|

                D|--------------------------------------------------------|g3
                A|--------------------------------------------------------|
                F|--------------------------------------------------------|
                C|-(0)----------------------------------------------------|
                G|-(0)----------------------------------------------------|
                C|-(0)----------------------------------------------------|

I still picture your face...

D|----------------------------------------------------------|g1
A|----------------------------------------------------------|
F|----------------------------------------------------------|
C|------10-----10-----10-----10----10-----------------------|
G|--8-8----8-8----8-8----8-8-----8----8---------------------|
C|----------------------------------------------------------|           

                D|--------------------------------------------------------|g3
                A|--------------------------------------------------------|
                F|--------------------------------------------------------|
                C|--8-----------------------------------------------------|
                G|--8-----------------------------------------------------|
                C|--8-----------------------------------------------------|

and the way you used to taste...

D|----------------------------------------------------------|g1
A|----------------------------------------------------------|
F|----------------------------------------------------------|
C|--------12-------12-------12-------12-----12--------------|
G|--10-10----10-10----10-10----10-10-----10----10-----------|
C|----------------------------------------------------------|                   

                D|--------------------------------------------------------|g3
                A|--------------------------------------------------------|
                F|--------------------------------------------------------|
                C|--10----------------------------------------------------|
                G|--10----------------------------------------------------|
                C|--10----------------------------------------------------|

Roses in a glass...

D|----------------------------------------------------------|g1
A|----------------------------------------------------------|
F|-----14-------15-------14-------12-------12h14------------|
C|--12----12-12----12-12----12-12----12-12------------------|
G|----------------------------------------------------------|
C|----------------------------------------------------------|           

        D|----------------------------------------------------------|g2
        A|----------------------------------------------------------|
        F|----------------------------------------------------------|
        C|--10/12~----------------------------------------15-15h17--|
        G|----------------------------------------------------------|
        C|----------------------------------------------------------|
                
                D|--------------------------------------------------------|g3
                A|--------------------------------------------------------|
                F|--------------------------------------------------------|
                C|--0-----------------------------------------------------|
                G|--0-----------------------------------------------------|
                C|--0-----------------------------------------------------|

dead and wilted...

D|----------------------------------------------------------|g1
A|----------------------------------------------------------|
F|-----14-------15-------14-------12-------12h14p12---------|
C|--12----12-12----12-12----12-12----12-12------------------|
G|----------------------------------------------------------|
C|----------------------------------------------------------|

        D|----------------------------------------------------------|g2
        A|----------------------------------------------------------|
        F|----------------------------------------------------------|
        C|--10/12~----------------------------------------15-15h17--|
        G|----------------------------------------------------------|
        C|----------------------------------------------------------|
                
                D|--------------------------------------------------------|g3
                A|--------------------------------------------------------|
                F|--------------------------------------------------------|
                C|--0-----------------------------------------------------|
                G|--0-----------------------------------------------------|
                C|--0-----------------------------------------------------|

To you this all was nothing...

D|----------------------------------------------------------|g1
A|----------------------------------------------------------|
F|----------------------------------------------------------|
C|------10-----10-----10-----10----10-----------------------|
G|--8-8----8-8----8-8----8-8-----8----8---------------------|
C|----------------------------------------------------------|           

        D|----------------------------------------------------------|g2
        A|----------------------------------------------------------|
        F|----------------------------------------------------------|
        C|--10/12~----------------------------------------15-15h17--|
        G|----------------------------------------------------------|
        C|----------------------------------------------------------|

                D|--------------------------------------------------------|g3
                A|--------------------------------------------------------|
                F|--------------------------------------------------------|
                C|--8-----------------------------------------------------|
                G|--8-----------------------------------------------------|
                C|--8-----------------------------------------------------|

everything to you was nothing...

D|----------------------------------------------------------|g1
A|----------------------------------------------------------|
F|----------------------------------------------------------|
C|--------12-------12-------12-------12-----12--------------|
G|--10-10----10-10----10-10----10-10-----10----10-----------|
C|----------------------------------------------------------|                   

        D|----------------------------------------------------------|g2
        A|----------------------------------------------------------|
        F|----------------------------------------------------------|
        C|--10/12~----------------------------------15h17-15/14-12--|
        G|----------------------------------------------------------|
        C|----------------------------------------------------------|   
                
                D|--------------------------------------------------------|g3
                A|--------------------------------------------------------|
                F|--------------------------------------------------------|
                C|--10----------------------------------------------------|
                G|--10----------------------------------------------------|
                C|--10----------------------------------------------------|

[Pre-Chorus]

Well, you're so...
        
D|----------------------------------------------------------|g1
A|----------------------------------------------------------|
F|-----14-------15-------14-------12-------12h14------------|
C|--12----12-12----12-12----12-12----12-12------------------|
G|----------------------------------------------------------|
C|----------------------------------------------------------|

        D|----------------------------------------------------------|g2
        A|----------------------------------------------------------|
        F|----------------------------------------------------------|
        C|--10/12~----------------------------------------15-15h17--|
        G|----------------------------------------------------------|
        C|----------------------------------------------------------|
                
                D|--------------------------------------------------------|g3
                A|--------------------------------------------------------|
                F|--------------------------------------------------------|
                C|--0-x0-x0-x0-x-00---------------------------------------|
                G|--0-x0-x0-x0-x-00---------------------------------------|
                C|--0-x0-x0-x0-x-00---------------------------------------|

fffiillllttthhhyy...

D|----------------------------------------------------------|g1
A|----------------------------------------------------------|
F|-----14-------15-------14-------12-------12h14p12---------|
C|--12----12-12----12-12----12-12----12-12------------------|
G|----------------------------------------------------------|
C|----------------------------------------------------------|

        D|----------------------------------------------------------|g2
        A|----------------------------------------------------------|
        F|----------------------------------------------------------|
        C|--10/12~----------------------------------------15-15h17--|
        G|----------------------------------------------------------|
        C|----------------------------------------------------------|
                
                D|--------------------------------------------------------|g3
                A|--------------------------------------------------------|
                F|--------------------------------------------------------|
                C|--0-x0-x0-x0-x-00---------------------------------------|
                G|--0-x0-x0-x0-x-00---------------------------------------|
                C|--0-x0-x0-x0-x-00---------------------------------------|

I'm better off without you...

D|----------------------------------------------------------|g1
A|----------------------------------------------------------|
F|----------------------------------------------------------|
C|------10-----10-----10-----10----10-----------------------|
G|--8-8----8-8----8-8----8-8-----8----8---------------------|
C|----------------------------------------------------------|   

        D|----------------------------------------------------------|g2
        A|----------------------------------------------------------|
        F|----------------------------------------------------------|
        C|--10/12~----------------------------------------15-15h17--|
        G|----------------------------------------------------------|
        C|----------------------------------------------------------|
                
                D|--------------------------------------------------------|g3
                A|--------------------------------------------------------|
                F|--------------------------------------------------------|
                C|--8-x8-x8-x8-x-88---------------------------------------|
                G|--8-x8-x8-x8-x-88---------------------------------------|
                C|--8-x8-x8-x8-x-88---------------------------------------|

and you're better off without me...

D|----------------------------------------------------------|g1
A|----------------------------------------------------------|
F|----------------------------------------------------------|
C|--------12-------12-------12-------12-----12--------------|
G|--10-10----10-10----10-10----10-10-----10----10-----------|
C|----------------------------------------------------------|   

        D|----------------------------------------------------------|g2
        A|----------------------------------------------------------|
        F|----------------------------------------------------------|
        C|--10/12~----------------------------------15h17-15/14-12--|
        G|----------------------------------------------------------|
        C|----------------------------------------------------------|

                D|--------------------------------------------------------|g3
                A|--------------------------------------------------------|
                F|--------------------------------------------------------|
                C|--10-x10-x10-x10-x-1010---------------------------------|
                G|--10-x10-x10-x10-x-1010---------------------------------|
                C|--10-x10-x10-x10-x-1010---------------------------------|

Well, I'm so...

D|----------------------------------------------------------|g1
A|----------------------------------------------------------|
F|-----14-------15-------14-------12-------12h14------------|
C|--12----12-12----12-12----12-12----12-12------------------|
G|----------------------------------------------------------|
C|----------------------------------------------------------|

        D|----------------------------------------------------------|g2
        A|----------------------------------------------------------|
        F|----------------------------------------------------------|
        C|--10/12~----------------------------------------15-15h17--|
        G|----------------------------------------------------------|
        C|----------------------------------------------------------|

                D|--------------------------------------------------------|g3
                A|--------------------------------------------------------|
                F|--------------------------------------------------------|
                C|--0-x0-x0-x0-x-00---------------------------------------|
                G|--0-x0-x0-x0-x-00---------------------------------------|
                C|--0-x0-x0-x0-x-00---------------------------------------|

uuuggggglllyyyy...

D|----------------------------------------------------------|g1
A|----------------------------------------------------------|
F|-----14-------15-------14-------12-------12h14p12---------|
C|--12----12-12----12-12----12-12----12-12------------------|
G|----------------------------------------------------------|
C|----------------------------------------------------------|

        D|----------------------------------------------------------|g2
        A|----------------------------------------------------------|
        F|----------------------------------------------------------|
        C|--10/12~-------------------------------------------17-15--|
        G|----------------------------------------------------------|
        C|----------------------------------------------------------|
                
                D|--------------------------------------------------------|g3
                A|--------------------------------------------------------|
                F|--------------------------------------------------------|
                C|--0-x0-x0-x0-x-00---------------------------------------|
                G|--0-x0-x0-x0-x-00---------------------------------------|
                C|--0-x0-x0-x0-x-00---------------------------------------|

You're better off without me...

D|----------------------------------------------------------|g1
A|----------------------------------------------------------|
F|----------------------------------------------------------|
C|------10-----10-----10-----10----10-----------------------|
G|--8-8----8-8----8-8----8-8-----8----8---------------------|
C|----------------------------------------------------------|

        D|----------------------------------------------------------|g2
        A|----------------------------------------------------------|   
        F|---------------------------------------------14-15-14-12--|
        C|--12h14/15~----------------------------12h14--------------|
        G|----------------------------------------------------------|
        C|----------------------------------------------------------|
                
                D|--------------------------------------------------------|g3
                A|--------------------------------------------------------|
                F|--------------------------------------------------------|
                C|--8-x8-x8-x8-x-88---------------------------------------|
                G|--8-x8-x8-x8-x-88---------------------------------------|
                C|--8-x8-x8-x8-x-88---------------------------------------|

I'm better off without...

D|----------------------------------------------------------|g1
A|----------------------------------------------------------|
F|----------------------------------------------------------|
C|--------12-------12-------12-------12-----12--------------|
G|--10-10----10-10----10-10----10-10-----10----10-----------|
C|----------------------------------------------------------|   

        D|----------------------------------------------------------|g2
        A|----------------------------------------------------------|
        F|----------------------------------------------------------|
        C|--15-15p14-14-----------------------15-17-15\14-10-10/12--|
        G|----------------------------------------------------------|
        C|----------------------------------------------------------|

                D|--------------------------------------------------------|g3
                A|--------------------------------------------------------|
                F|--------------------------------------------------------|
                C|--10-x10-x10-x10-x-1010---------------------------------|
                G|--10-x10-x10-x10-x-1010---------------------------------|
                C|--10-x10-x10-x10-x-1010---------------------------------|
        
[Chorus]

The lying, the bleeding, the screaming, was tearing me apart... 

                D|--------------------------------------------------------|g3
                A|--------------------------------------------------------|
                F|--------------------------------------------------------|
                C|--0-00-xx-0-00-xx------0-00-xx-0-3333-5555--------------|
                G|--0-00-xx-0-00-xx------0-00-xx-0-3333-5555--------------|
                C|--0-00-xx-0-00-xx------0-00-xx-0-3333-5555--------------|

The hatred, the beatings, disaster, it's over...

                D|--------------------------------------------------------|g3
                A|--------------------------------------------------------|
                F|--------------------------------------------------------|
                C|--0-00-xx-0-00-xx------0-00-xx-0-3333-5555--------------|
                G|--0-00-xx-0-00-xx------0-00-xx-0-3333-5555--------------|
                C|--0-00-xx-0-00-xx------0-00-xx-0-3333-5555--------------|

[Interlude]

...Lies...

        D|----------------------------------------------------------|g2
        A|----------------------------------------------------------|
        F|--------------14-12-14------------------------------------|
        C|--12~------------------14---------------------------------|
        G|----------------------------------------------------------|
        C|----------------------------------------------------------|
        
                D|--------------------------------------------------------|g3
                A|--------------------------------------------------------|
                F|--------------------------------------------------------|
                C|--0---------------xx30-7--------------xx77--------------|
                G|--0---------------xx30-7--------------xx77--------------|
                C|--0---------------xx30-7--------------xx77--------------|

As wicked as you are, you're beautiful to me... 

        D|----------------------------------------------------------|g2
        A|----------------------------------------------------------|
        F|----------------------------------------------------------|
        C|--15~------------15-15-14~-14-14h15-15h17-----------------|
        G|----------------------------------------------------------|
        C|----------------------------------------------------------|

                D|--------------------------------------------------------|g3
                A|--------------------------------------------------------|
                F|--------------------------------------------------------|
                C|--3---------------xx33-10-------------------------------|
                G|--3---------------xx33-10-------------------------------|
                C|--3---------------xx33-10-------------------------------|

...Lies...

        D|----------------------------------------------------------|g2
        A|----------------------------------------------------------|
        F|----------------------------------------------------------|
        C|--12~---------15-14-15-14---------------------------------|
        G|----------------------------------------------------------|
        C|----------------------------------------------------------|

                D|--------------------------------------------------------|g3
                A|--------------------------------------------------------|
                F|--------------------------------------------------------|
                C|--0---------------xx30-7--------------xx77--------------|
                G|--0---------------xx30-7--------------xx77--------------|
                C|--0---------------xx30-7--------------xx77--------------|

You're the darkest burning star, you're my perfect disease...

        D|----------------------------------------------------------|g2
        A|----------------------------------------------------------|
        F|----------------------------------------------------------|
        C|--15~---------------15\14~-14-14h15-15h17-----------------|
        G|----------------------------------------------------------|
        C|----------------------------------------------------------|
        
                D|--------------------------------------------------------|g3
                A|--------------------------------------------------------|
                F|--------------------------------------------------------|
                C|--3---------------xx33-10-------------------------------|
                G|--3---------------xx33-10-------------------------------|
                C|--3---------------xx33-10-------------------------------|

[Chorus]

The lying, the bleeding, the screaming, was tearing me apart... 

                D|--------------------------------------------------------|g3
                A|--------------------------------------------------------|
                F|--------------------------------------------------------|
                C|--0-00-xx-0-00-xx-0-00-xx-0-3333-5555-------------------|
                G|--0-00-xx-0-00-xx-0-00-xx-0-3333-5555-------------------|
                C|--0-00-xx-0-00-xx-0-00-xx-0-3333-5555-------------------|

The hatred, the beatings, it's over, disaster...

                D|--------------------------------------------------------|g3
                A|--------------------------------------------------------|
                F|--------------------------------------------------------|
                C|--0-00-xx-0-00-xx-0-00-xx-0-3333-5555-------------------|
                G|--0-00-xx-0-00-xx-0-00-xx-0-3333-5555-------------------|
                C|--0-00-xx-0-00-xx-0-00-xx-0-3333-5555-------------------|

The lying, the bleeding, the screaming, was tearing me apart...
        
                D|--------------------------------------------------------|g3
                A|--------------------------------------------------------|
                F|--------------------------------------------------------|
                C|--0-00-xx-0-00-xx-0-00-xx-0-3333-5555-------------------|
                G|--0-00-xx-0-00-xx-0-00-xx-0-3333-5555-------------------|
                C|--0-00-xx-0-00-xx-0-00-xx-0-3333-5555-------------------|

The hatred, the beatings, it's over, disaster...

                D|--------------------------------------------------------|g3
                A|--------------------------------------------------------|
                F|--------------------------------------------------------|
                C|--0-00-xx-0-00-xx-0-00-xx-0-3333-5555-------------------|
                G|--0-00-xx-0-00-xx-0-00-xx-0-3333-5555-------------------|
                C|--0-00-xx-0-00-xx-0-00-xx-0-3333-5555-------------------|

[Outro]

D|----------------------------------------------------------|g1
A|----------------------------------------------------------|
F|-----14-------15-------14-------12-------12h14------------|
C|--12----12-12----12-12----12-12----12-12------------------|
G|----------------------------------------------------------|
C|----------------------------------------------------------|

        D|----------------------------------------------------------|g2
        A|----------------------------------------------------------|
        F|----------------------------------------------------------|
        C|--10/12~----------------------------------------------10--|
        G|----------------------------------------------------------|
        C|----------------------------------------------------------|

D|----------------------------------------------------------|g1
A|----------------------------------------------------------|
F|-----14-------15-------14-------12-------12h14p12---------|
C|--12----12-12----12-12----12-12----12-12------------------|
G|----------------------------------------------------------|
C|----------------------------------------------------------|

        D|----------------------------------------------------------|g2
        A|----------------------------------------------------------|
        F|----------------------------------------------------------|
        C|--10/12~----------------------------------------15-14-10--|
        G|----------------------------------------------------------|
        C|----------------------------------------------------------|

It's ooooovvvveeerrrrr nnooowwww...

D|----------------------------------------------------------|g1
A|----------------------------------------------------------|
F|----------------------------------------------------------|
C|------10-----10-----10-----10----10------------12---------|
G|--8-8----8-8----8-8----8-8-----8----8----10-10------------|
C|----------------------------------------------------------|

        D|----------------------------------------------------------|g2
        A|----------------------------------------------------------|
        F|----------------------------------------------------------|
        C|--8~-----------------------------15-14-10-10/12-10-7-5-0--|
        G|----------------------------------------------------------|
        C|----------------------------------------------------------|


I remember when all the games began
Remember every little lie and every last goodbye
The promises you broke, words you choked on
And I never walked away, it's still a mystery to me

Well, I'm so empty, I'm better off without you
And you're better off without me
Well, you're so unclean, I'm better off without you
And you're better off without me

The lying, the bleeding, the screaming
Was tearing me apart
The hatred, deceiving, the bleeding
It's over

Paint the mirrors black to forget you
I still picture your face and the way you used to taste
Roses in a glass, dead and wilted
To you this all was nothing, everything to you is nothing

Well, you're so filthy, I'm better off without you
And you're better off without me
Well, I'm so ugly, you're better off without me
I'm better off without

The lying, the bleeding, the screaming
Was tearing me apart
The hatred, the beatings, disaster
It's over

As wicked as you are
You're beautiful to me
You're the darkest burning star
You're my perfect disease

The lying, the bleeding, the screaming
Was tearing me apart
The hatred, the beatings, it's over
Disaster

The lying, the bleeding, the screaming
Was tearing me apart
The hatred, the beatings, it's over
Disaster

It's over now



************************************

| x    Dead note
| (n)  Ghost note
| h    Hammer-on
| p    Pull-off
| b    Bend
| /    Slide up
| \    Slide down
| ~    Vibrato

************************************ 
Suggest correction
comments
print report bad tab
16 comments total. Showing first comments.
+3 reply
linghoejohnson9 1,076 wrote on December 12 2009, 11:32 pm

5 stars. amazing tab

+3 reply
metalforlife329 16 wrote on April 9 2010, 04:53 pm

Dude, amazing, 100*, i am so glad you posted a comment on the tab after yours, other wise i never would have seen this, its great bro, keep it up man.

+3 reply
rebornmaster9 154 wrote on January 14 2011, 02:07 am

the most accurate tab on the web, all the other tabs suck but you nailed it 5 stars

guest
You may want to rate the tab now too:
select rating
Wanna post a correction for this tab? Suggest correction