Oops, an error
Loading. Please wait.

Canto 34 Tab

version 1
version 1

Whole song

Interactive

44,703 views 9 this week
18 commentsread comments
1 2 3 4 5
x 31
add to favorites
launch autoscroll
font size
0
reset
how to read this tab
guitar tuner
Autoscroll
slow
fast
+/-
esc
set tempo
stop
Author
e|------------------------------------------------|
B|------------------------------------------------|
G|------------------------------------------------|
D|--9-----7-----10------12---10---12-/-14---\-----|
A|--7-----5-----8-------0-------------------------|
E|--9-----7-----10--------------------------------|

e|---------------------------------------------------------------------|
B|---------------------------------------------------------------------|
G|------------------9-----7---------------------------9-----7----------|
D|-7-7-9-7-7-10-7-7---7-7---7-7-9h10-7-7-10-7-7-9-7-7---7-7---7-7-9h10-|
A|---------------------------------------------------------------------|
E|---------------------------------------------------------------------|

e|---------------------------------------------------------------------|
B|---------------------------------------------------------------------|
G|------------------9-----7---------------------------9-----7----------|
D|-7-7-10-7-7-9-7-7---7-7---7-7-9h10-7-7-10-7-7-9-7-7---7-7---7-7-9h10-|
A|---------------------------------------------------------------------|
e|---------------------------------------------------------------------|

e|---------------------------------------------------------------------|
B|---------------------------------------------------------------------|
G|------------------9-----7---------------------------9-----7----------|
D|-7-7-9-7-7-10-7-7---7-7---7-7-9h10-7-7-10-7-7-9-7-7---7-7---7-7-9h10-|
A|---------------------------------------------------------------------|
e|---------------------------------------------------------------------|

e|------------------------------------------------------------------------------|
B|---------------------------------------10----10-12-10-12-13-12-13/15/17~--20^-|
G|---------------9----9-10-9-10-12-10-12----12----------------------------------|
D|-9-10-12-10-12---12-----------------------------------------------------------|
A|------------------------------------------------------------------------------|
e|------------------------------------------------------------------------------|

e|-17-19-20-17-19----17----------------------------------------------------|
B|----------------20----18-20-17-18-------17-------------------------------|
G|----------------------------------19-17----19-------17----------19----17-|
D|----------------------------------------------17h19----19-17-19----19----|
A|-------------------------------------------------------------------------|
e|-------------------------------------------------------------------------|

e|--------------20^~--------------------------------------------------|
B|-------22------------/10h12h13-12^-13p12p10----12p10----------------|
G|-19/21----21--------------------------------12-------12-------14----|
D|--------------------------------------------------------12/14----14-|
A|--------------------------------------------------------------------|
e|--------------------------------------------------------------------|

e|-------------------/20------------------------------------------------|
B|-------------12h13-----17-18-------------17-18-20-20^v-18----17-18-20-|
G|----------12-----------------19-16-17-19------------------19----------|
D|-------14-------------------------------------------------------------|
A|-12h15----------------------------------------------------------------|
e|----------------------------------------------------------------------|

e|----------------17----17-19-19^-19^-v-19~---|
B|-17-18-20-18-20----20-----------------------|
G|--------------------------------------------|
D|--------------------------------------------|
A|--------------------------------------------|
e|--------------------------------------------|

e|------------------------------------------------------|
B|------------------------------------------------------|
G|------------------------------------------------------|  (2x)
D|-------0-0-----------------------------------------0--|
A|-0--0--0-0---0-0----0-0-0--0-0--0-0-0---0--0-0---0-0--|
E|-0--0--0-0---0-0----0-0-0--0-0--0-0-0---0--0-0---0-0--|

e|------------------------------------------------------------------|
B|------------------------------------------------------------------|
G|-------------------------------------------------------------5p4--|   (2x)
D|-----2-------2-------2-------2-------2-------2---3-3-3-3-3-3------|
A|-2-2-2---2-2-2---2-2-2---2-2-2---2-2-2---2-2-2---2-2-2-2-2-2------|
E|-2-2-2---2-2-2---2-2-2---2-2-2---2-2-2---2-2-2---3-3-3-3-3-3------|

e|----------------------------------------------------------|
B|----------------------------------------------------------|
G|-----9~---------14---------12---------10------------------|   (3x)
D|-7---------9 10----10-9-10----10-9-10----10-9\-5/---------|
A|----------------------------------------------------------|
E|----------------------------------------------------------|

e|-------------------------------------------------------------|
B|-------------------------------------------------------------|
G|-----9~---------14---------12---------10---------------------|
D|-7---------9 10----10-9-10----10-9-10----10-9\-5/-9--9h10p9~-|
A|-------------------------------------------------------------|
E|-------------------------------------------------------------|

e|-------------------------------------------------------12-15-17-|
B|---------------------------------------12-13--------13----------|
G|------------9----9-10-12-10-9-10-12/14-------14--14-------------|
D|-10-9-10-12---12------------------------------------------------|
A|----------------------------------------------------------------|
e|----------------------------------------------------------------|

e|-12h15h19p-12h15h20p12h15h19p12h15h17p12---------5-/-17-\--|
B|-----------------------------------------13----------------|
G|--------------------------------------------14~\-----------|
D|-----------------------------------------------------------|
A|-----------------------------------------------------------|
e|-----------------------------------------------------------|

e|-/15-13-12h13p12----------------------------------------------|
B|-----------------15~--13-12h13p12-----------------------------|
G|----------------------------------14~-----------12-14-16-17~--|
D|---------------------------------------12-14-15---------------|
A|--------------------------------------------------------------|
e|--------------------------------------------------------------|

e|-------------------------------------------------10-12-13-12-10--------------|
B|----------------------------10-12-13-12-10-12-13----------------13-12-10-13~-|
G|-------------------10-12-14--------------------------------------------------|
D|----------10-12-14-----------------------------------------------------------|
A|-10-12-14--------------------------------------------------------------------|
e|-----------------------------------------------------------------------------|

e|-------10-12-13-15-13-12-10----------------------------------------------------------|
B|-12-13----------------------13-12-10-15-13-12-------------------10-12-13-15-13-12-10-|
G|-------------------------------------------------------10-12-14----------------------|
D|----------------------------------------------10-12-14-------------------------------|
A|-------------------------------------------------------------------------------------|
e|-------------------------------------------------------------------------------------|

e|------------------------------------------------------------------|
B|-------10---------------------------------------------------------|
G|-14-12----14-12-10-------10---------------------------------------|
D|-------------------14-12----14-12-10-------14-12-10---------------|
A|-------------------------------------14-12----------14-12-10-12~--|
e|------------------------------------------------------------------|

e|------------------------------------------------------|
B|------------------------------------------------------|
G|------------------------------------------------------|  (2x)
D|-------0-0-----------------------------------------0--|
A|-0--0--0-0---0-0----0-0-0--0-0--0-0-0---0--0-0---0-0--|
E|-0--0--0-0---0-0----0-0-0--0-0--0-0-0---0--0-0---0-0--|

e|------------------------------------------------------------------|
B|------------------------------------------------------------------|
G|-------------------------------------------------------------5p4--|   (2x)
D|-----2-------2-------2-------2-------2-------2---3-3-3-3-3-3------|
A|-2-2-2---2-2-2---2-2-2---2-2-2---2-2-2---2-2-2---2-2-2-2-2-2------|
E|-2-2-2---2-2-2---2-2-2---2-2-2---2-2-2---2-2-2---3-3-3-3-3-3------|

e|----------------------------------------------------------|
B|----------------------------------------------------------|
G|-----9~---------14---------12---------10------------------|   3x
D|-7---------9 10----10-9-10----10-9-10----10-9\-5/---------|
A|----------------------------------------------------------|
E|----------------------------------------------------------|

e|----------------------------------------------------------|
B|----------------------------------------------------------|
G|-----9~---------14---------12---------10------------------|
D|-7---------9 10----10-9-10----10-9-10----10-9\-5/-7--7/9--|
A|----------------------------------------------------------|
E|----------------------------------------------------------|

e|-----------------------------------------------------------|
B|-----------------------------------------------------------|
G|------------9----9-10-12-10-9---------------------9-14-12^-|
D|-10-9-10-12---12--------------12-10-9-10-12-7-/10----------|
A|-----------------------------------------------------------|
e|-----------------------------------------------------------|

e|----------------------------------------------------------------------|
B|----------------------------------------------------------------------|
G|-9h12p9\8h9p8\7h9p8p7------7------------------*5p4---*5-4-------------|
D|----------------------10-7---7-10-7-5-------5------5------7-5---------|
A|--------------------------------------7p5h7-------------------7-5-3-0-|
e|----------------------------------------------------------------------|

e|----------------------------------------------------------------12----|
B|---------------------------------------------12p8---13----14-------10-|
G|----------------7/9h12p9\7------/9h14p9-12^-------9----11----12-------|
D|-------5/7h10p7------------10p7---------------------------------------|
A|-3/5h7----------------------------------------------------------------|
e|----------------------------------------------------------------------|

e|-13----12h13p12p10----10-12-13/15----15/17----17/20----19h20p19p17----|
B|----10-------------13-------------13-------15-------17-------------20-|
G|----------------------------------------------------------------------|
D|----------------------------------------------------------------------|
A|----------------------------------------------------------------------|
e|----------------------------------------------------------------------|

e|-17-19-20/22-20-19----19----17-19-----------17-----17-19-20-22----22----22/24~-|
B|-------------------20----20-------20-----17----20^-------------19----19--------|
G|-------------------------------------19^---------------------------------------|
D|-------------------------------------------------------------------------------|
A|-------------------------------------------------------------------------------|
e|-------------------------------------------------------------------------------|

e|------------------------------------------------------|
B|------------------------------------------------------|
G|------------------------------------------------------|       (2x)
D|-------0-0-----------------------------------------0--|
A|-0--0--0-0---0-0----0-0-0--0-0--0-0-0---0--0-0---0-0--|
E|-0--0--0-0---0-0----0-0-0--0-0--0-0-0---0--0-0---0-0--|

e|----------------------------------------------------------------------|
B|----------------------------------------------------------------------|
G|-----2---1----------2---1-1-1--------2---1-----2---4-----2---1h2p1----|       (2x)
D|-2-2---2---2---2--2---2-------2--2-2---2---2-2---2---2-2---2-------2--|
A|----------------------------------------------------------------------|
E|----------------------------------------------------------------------|

e|-----------------------------------------------------------------|
B|-----------------------------------------------------------------|
G|-------------------------2-2-2-1-1-1-5-5-5-4-4-4-1-1-1-2-2-2-4-4-|
D|-2-2-2-3-3-3-0-0-0-3-3-3-----------------------------------------|
A|-----------------------------------------------------------------|
E|-----------------------------------------------------------------|

(gtr  1)
e|-------------------------------------------------------------------|
B|-------------------------------------------------------------------|
G|-------------------------2-2-2-1-1-1-5-5-5-4-4-4-9-9-9-7-7-7-4--5~-|
D|-2-2-2-0-0-0-3-3-3-2-2-2-------------------------------------------|
A|-------------------------------------------------------------------|
e|-------------------------------------------------------------------|

(gtr 2)
e|-------------------------------------------------------------------|
B|-------------------------------------------------------------------|
G|-1-1-1-------2-2-2-1-1-1-5-5-5-4-4-4-7-7-7-5-5-5-9-9-9-7-7-7-------|
D|-------3-3-3-------------------------------------------------9--7~-|
A|-------------------------------------------------------------------|
E|-------------------------------------------------------------------|

e|--------5------------5--------------1----------1---------------5-----|
B|----------5------------5----------1---1----------1-----------5---5---|
G|-----5------5------5-----5------2-------2----2-----2-------5-------5-|
D|---7-------------7---------7--3------------3---------3--/7-----------|
A|-0-------------0-----------------------------------------------------|
E|---------------------------------------------------------------------|

e|-------5------------5-----------5----------------------------------|
B|---------5------------6-----------5----------9-----------9---------|
G|---5-------5------7-----7-----7-----7------7-----------7---7-------|
D|-7---7----------7-----------7------------6-----6-----6-------6---7-|
A|--------------5-----------5------------7---------7-7----------7--8-|
e|-------------------------------------------------------------------|

e|------------------------------------------------------------------|
B|-------1--------1------------1--------1------------1--------1-----|
G|-----4--------4---4--------4--------4---4--------4--------4---4---|
D|---2--------2-------2----3--------3-------3----2--------2-------2-|
A|-0--------0----------------------------------0--------0-----------|
E|-----------------------3--------3---------------------------------|

e|------------------------------------------------------------------|
B|-------6--------6--------------9---------6--------------1---------|
G|-----7--------7---7----------7---------7---7----------4---4-------|
D|---7--------7-------7------6---------7-------7------2-------2-----|
A|-5--------5-----------5--7---------5--------------0------------0--|
e|------------------------------------------------------------------|


************************************

| /  Slide up
| \  Slide down
| h  Hammer-on
| ~  Vibrato
| p  Pull-off
| *  Natural harmonic

************************************
Suggest correction
comments
print report bad tab
18 comments total. Showing first comments.
+1 reply
SplitSoul 809 Jun 16, 2010 06:41 AM

Oh wow.. Didnt know that. thanks though, well If you only have a 6 string this will def. work. :)

+4 reply
death punch 10 Jun 26, 2010 10:47 PM

no 5FDP they don't use seven strings they just play in b look at there guitars. my friend has the original guitarests BC Rich (IT SUCKS BALLS) and zoltans guitar as a six and so is the new guys. just look at some pics. oh and splitsoil count em up 1234 and 5 stars best one on the net sofar

0 reply
Fenderof94 10 Jul 15, 2010 12:24 PM

I like this tab a lot, my only problem is with my line 6 amp I can't get the effects to sound like how it's being played. Anyone happen to know how to change my amp around? I'm using an epiphone G-310 SG guitar in treble.

guest
You may want to rate the tab now too:
select rating
Wanna post a correction for this tab? Suggest correction