Oops, an error
Loading. Please wait.

Coming Down bass

version 1
version 1

Whole song

Interactive

1,858 views 24 this week
no commentswrite comment
1 2 3 4 5
x 4
add to favorites
×
Save as Personal and add changes to this tab that will be seen only by you. Learn more ›
×
You can save this tab as Personal to edit and correct it or add notes. All changes will be seen only by you. Learn more »
launch autoscroll
font size
0
reset
guitar tuner
edit
Autoscroll
slow
fast
+/-
esc
set tempo
stop
Author
Difficulty
Again, doing these bass tabs with my acoustic-electric and trying to stick with only the two lowest-toned
strings to make it as accurate as possible without an actual bass. Seems to work pretty well on most parts.

Intro: G|-----------------------------------------------------------------|
       D|-----------------------------------------------------------------|
       A|-4~---------------4~---------------4~------------------0~-2~---0-|
       E|----4~-5~-2~-2h4~----4~-5~-2~-2h4~----4~-5~-2~-2h4~-0~-------0---|

Verse: G|-----------------------------------------------------------------|
       D|-----------------------------------------------------------------| X2
       A|-4~---------------4~---------------4~------------------0~-2~---0-|
       E|----4~-5~-2~-2h4~----4~-5~-2~-2h4~----4~-5~-2~-2h4~-0~-------0---|

          It's caving in around me, what I thought was solid ground

          I tried to look the other way, but I couldn't turn around

          It's ok for you to hate me, for all the things I've done

          I've made a few mistakes, but I'm not the only one

Pre-Chorus: G|------------|
            D|------------|
            A|------2~-3~-|
            E|-5~-0-------|

               Step away from the ledge, I'm coming down

Chorus: G|-----------------------------------------------------------------|
        D|-----------------------------------------------------------------|
        A|-4-4-4-4-4-4-4-4-4-4-4-4-4-4-4-4---------------------------------|
        E|---------------------------------5-5-5-5-5-5-5-5-5-5-5-5-5-5-5-5-|

           I could never be, what you want me to

        G|-----------------------------------------------------------------|
        D|-----------------------------------------------------------------|
        A|---------------------------------2-2-2-2-2-2-2-2-3-3-3-3-3-3-3-3-|
        E|-0-0-0-0-0-0-0-0-0-0-0-0-0-0-0-0---------------------------------|

           You pulled me under, to save yourself (save yourself)

        G|-----------------------------------------------------------------|
        D|-----------------------------------------------------------------|
        A|-4-4-4-4-4-4-4-4-4-4-4-4-4-4-4-4---------------------------------|
        E|---------------------------------5-5-5-5-5-5-5-5-5-5-5-5-5-5-5-5-|

           You will never see, what's inside of me

        G|-----------------------------------------------------------------|
        D|-----------------------------------------------------------------|
        A|---------------------------------2-2-2-2-2-2-2-2-3-3-3-3-3-3-3-3-|
        E|-0-0-0-0-0-0-0-0-0-0-0-0-0-0-0-0---------------------------------|

           I pull you under, just to save myself

Pre-Verse: G|-----------------------------------|
           D|-----------------------------------|
           A|-4~---------------4~---------------|
           E|----4~-5~-2~-2h4~----4~-5~-2~-2h4~-|

Verse: G|-----------------------------------------------------------------|
       D|-----------------------------------------------------------------| X2
       A|-4~---------------4~---------------4~------------------0~-2~---0-|
       E|----4~-5~-2~-2h4~----4~-5~-2~-2h4~----4~-5~-2~-2h4~-0~-------0---|

          Was there ever any question on how much I could take?

          You kept feeding me your bullshit, hoping I would break.

          Is there anybody out there? Is there anyone who cares?

          Is there anybody listening who will hear my final prayers?

Pre-Chorus: G|------------|
            D|------------|
            A|------2~-3~-|
            E|-5~-0-------|

               Step away from the ledge, I'm coming down

Chorus: G|-----------------------------------------------------------------|
        D|-----------------------------------------------------------------|
        A|-4-4-4-4-4-4-4-4-4-4-4-4-4-4-4-4---------------------------------|
        E|---------------------------------5-5-5-5-5-5-5-5-5-5-5-5-5-5-5-5-|

           I could never be, what you want me to

        G|-----------------------------------------------------------------|
        D|-----------------------------------------------------------------|
        A|---------------------------------2-2-2-2-2-2-2-2-3-3-3-3-3-3-3-3-|
        E|-0-0-0-0-0-0-0-0-0-0-0-0-0-0-0-0---------------------------------|

           You pulled me under, to save yourself (save yourself)

        G|-----------------------------------------------------------------|
        D|-----------------------------------------------------------------|
        A|-4-4-4-4-4-4-4-4-4-4-4-4-4-4-4-4---------------------------------|
        E|---------------------------------5-5-5-5-5-5-5-5-5-5-5-5-5-5-5-5-|

           You will never see, what's inside of me

        G|-----------------------------------------------------------------|
        D|-----------------------------------------------------------------|
        A|---------------------------------2-2-2-2-2-2-2-2-3-3-3-3-3-3-3-3-|
        E|-0-0-0-0-0-0-0-0-0-0-0-0-0-0-0-0---------------------------------|

           I pull you under, just to save myself

Bridge: G|-----------------------------------------------------------------|
        D|-----------------------------------------------------------------|
        A|---------------------------------4-4-4-4-4-4-4-4-2-2-2-2-2-2-2-2-|
        E|-5-5-5-5-5-5-5-5-5-5-5-5-5-5-5-5---------------------------------|

           It's caving in around me (caving in) 

        G|-----------------------------------------------------------------|
        D|-----------------------------------------------------------------|
        A|---------------------------------4-4-4-4-4-4-4-4-2-2-2-2-2-2-2-2-|
        E|-5-5-5-5-5-5-5-5-5-5-5-5-5-5-5-5---------------------------------|

           And it's tearing me apart (tearing me)

        G|-----------------------------------------------------------------|
        D|-----------------------------------------------------------------|
        A|---------------------------------4-4-4-4-4-4-4-4-2-2-2-2-2-2-2-2-|
        E|-5-5-5-5-5-5-5-5-5-5-5-5-5-5-5-5---------------------------------|

           It's all coming down around me (coming down) 

        G|-----------------------------------------------------------------|
        D|-----------------------------------------------------------------|
        A|-----------------------------------------------------------------|
        E|-2-2-2-2-2-2-2-2-2-2-2-2-2-2-2-2-2-2-2-2-2-2-2-2-2-2-2-2-2-2-2-2-|

           Does anyone, anyone, care at all?!?

        G|-------------|
        D|-------------|
        A|-4~----------|
        E|----5~-0~-2~-|

           I will never be what you want me to. You pull me under...I pull you under.

Solo: G|-------------|
      D|-------------|
      A|-4~-4~-4~-4~-|
      E|-------------|

      G|--------------------------------|
      D|--------------------------------|
      A|-4~-6h7-4-6-4-7-4-9-4-7-4-6-4-7-|
      E|--------------------------------|

      G|---------------------------|
      D|---------------------------|
      A|-4~-6h7-4-6-4-7-4-9-4-7p6~-|
      E|---------------------------|

      G|--------------------------------|
      D|--------------------------------|
      A|-4~-6h7-4-6-4-7-4-9-4-7-4-6-4-7-|
      E|--------------------------------|

      G|---------------------------|
      D|---------------------------|
      A|-4~-6h7-4-6-4-7-4-9-4-7p6~-|
      E|---------------------------|

      G|--------------------------------|
      D|--------------------------------|
      A|-4~-6h7-4-6-4-7-4-9-4-7-4-6-4-7-|
      E|--------------------------------|

      G|---------------------------|
      D|---------------------------|
      A|-4~-6h7-4-6-4-7-4-9-4-7p6~-|
      E|---------------------------|

      G|--------------------------------|
      D|--------------------------------|
      A|-4~-6h7-4-6-4-7-4-9-4-7-4-6-4-7-|
      E|--------------------------------|

      G|---------------------------|
      D|---------------------------|
      A|-4~-6h7-4-6-4-7-4-9-4-7p6~-|
      E|---------------------------|

      G|-----------------------------------------------------------------|
      D|-----------------------------------------------------------------|
      A|-4-4-4-4-4-4-4-4-4-4-4-4-4-4-4-4---------------------------------|
      E|---------------------------------5-5-5-5-5-5-5-5-5-5-5-5-5-5-5-5-|

      G|-----------------------------------------------------------------|
      D|-----------------------------------------------------------------|
      A|-7-7-7-7-7-7-7-7-7-7-7-7-7-7-7-7---------------------------------|
      E|---------------------------------7777777777777777888888888888888-|

Chorus: G|-----------------------------------------------------------------|
        D|-----------------------------------------------------------------|
        A|-4-4-4-4-4-4-4-4-4-4-4-4-4-4-4-4---------------------------------|
        E|---------------------------------5-5-5-5-5-5-5-5-5-5-5-5-5-5-5-5-|

           I could never be, what you want me to

        G|-----------------------------------------------------------------|
        D|-----------------------------------------------------------------|
        A|---------------------------------2-2-2-2-2-2-2-2-3-3-3-3-3-3-3-3-|
        E|-0-0-0-0-0-0-0-0-0-0-0-0-0-0-0-0---------------------------------|

           You pulled me under, to save yourself (save yourself)

        G|-----------------------------------------------------------------|
        D|-----------------------------------------------------------------|
        A|-4-4-4-4-4-4-4-4-4-4-4-4-4-4-4-4---------------------------------|
        E|---------------------------------5-5-5-5-5-5-5-5-5-5-5-5-5-5-5-5-|

           You will never see, what's inside of me

        G|-----------------------------------------------------------------|
        D|-----------------------------------------------------------------|
        A|---------------------------------2-2-2-2-2-2-2-2-3-3-3-3-3-3-3-3-|
        E|-0-0-0-0-0-0-0-0-0-0-0-0-0-0-0-0---------------------------------|

           I pull you under, just to save myself

Outro: G|---------------------------------------------------------|
       D|---------------------------------------------------------|
       A|-4~-7-6-4~-------------7-6-4--------------------------2~-|
       E|-----------7p5p4p2~-5~-------7p5p4p2~-0-0-0-0-0-0-0-0----|

            
            
Suggest correction
Creating personal tab
Creating personal tab
You can edit any tab online and save it as your Personal.

You can edit, replace or remove any tab part or add personal notes – all changes will be seen only by you.

Personal tabs can be accessed anytime from any device, even offline.
Learn more »
comments
print report bad tab
guest
You may want to rate the tab now too:
select rating
Wanna post a correction for this tab? Suggest correction