Oops, an error
Loading. Please wait.

Coming Down Tab

version 1
version 1

Intro

Whole song

Interactive

16,780 views 15 this week
2 commentsread comments
1 2 3 4 5
x 5
add to favorites
launch autoscroll
font size
0
reset
how to read this tab
guitar tuner
Autoscroll
slow
fast
+/-
esc
set tempo
stop
Help us to improve Ultimate-Guitar.com Take our survey!
×
Author
Difficulty
Tuning
intermediate
D# G# C# F# A# D#
My First tab. Did this all by ear, I think it's pretty close so hope it helps!

Tuning: half step down, then drop D it. 


[Intro]

e|----------------------------|
B|----------------------------|
G|----------------------------|
D|-------0--------------------|
A|----------0--0--0--0--------|
E|----0-------7--8--5--5h7----|(x3)

Then it goes something like this

e|------------------------|
B|------------------------|
G|------------------------|
D|------------------------|
A|-----0---0--0----0------|
E|---12--10--7-7--5-------|



************************************

| h  Hammer-on

************************************
Suggest correction
comments
print report bad tab
2 comments total.
0 reply
deathmeister111 10 Mar 09, 2015 08:38 PM

all five finger death punch, or atleast most are tuned to baritone tuning. to do this tune your 6 sting down to B and the rest should be C#, G#, E, B, F# and B
you should consider buying some heavier gauge strings. namely heavy core guitar strings

0 reply
boombaby849 10 Dec 15, 2015 08:01 PM

didn't like this contribution

guest
You may want to rate the tab now too:
select rating
Wanna post a correction for this tab? Suggest correction