Oops, an error
Loading. Please wait.

Far From Home Bass Tab

version 1
version 1

Whole song

Interactive

10,183 views 15 this week
no commentswrite comment
1 2 3 4 5
accurate
x 5
add to favorites
launch autoscroll
font size
0
reset
guitar tuner
Autoscroll
slow
fast
+/-
esc
set tempo
stop
Help us to improve Ultimate-Guitar.com Take our survey!
×
Difficulty
Tuning
novice
D A D G B E
NOTE!!! This is basically the same as the guitar tab just the low notes, we were playing 
this song live and needed a bass part, and this is it. ALL CREDIT FOR ORIGINALLY 
FIGURING OUT THiS SONG GOES TO HPIDRIFTERX


Key: Drop D (D,A,D,G)

----Intro----

G|----------------------------------------------------------|
D|----------------------------------------------------------|
A|--2------------0------------------------------------------|
D|----------------------------5------------2----------------|


G|----------------------------------------------------------|
D|----------------------------------------------------------|
A|--2------------0------------------------------------------|
D|----------------------------5------------2----------------|



----Verse One----


    Another day in this carnival of souls...
G|----------------------------------------------------------|
D|----------------------------------------------------------|
A|--2------------0------------------------------------------|
D|----------------------------5------------2----------------|


    Another night settles in, as quickly as it goes...
G|----------------------------------------------------------|
D|----------------------------------------------------------|
A|--2------------0------------------------------------------|
D|----------------------------4------------5---------7------|



    The memories are shadows; ink on the page......And I
G|----------------------------------------------------------|
D|----------------------------------------------------------|
A|--2------------0------------------------------------------|
D|----------------------------4------------5---------7------|


    can't seem to find my way home...
G|----------------------------------------------------------|
D|----------------------------------------------------------|
A|--2------------0------------------------------------------|
D|----------------------------5------------2----------------|



----Chorus----


    And it's almost like.........................Your
G|----------------------------------------------------------|
D|----------------------------------------------------------|
A|--2------------0------------------------------------------|
D|--------------------------5-----4-----2-----0--0h2p0------|


    heaven's trying everything, your heaven's trying everything To keep me out...
G|----------------------------------------------------------|
D|----------------------------------------------------------|
A|--2------------0------------------------------------------|
D|----------------------------4--------4---5----------------|



G|----------------------------------------------------------|
D|----------------------------------------------------------|
A|--2------------0------------------------------------------|
D|----------------------------5------------2----------------|


----Verse Two----


    All the places I've been and things I've seen...
G|----------------------------------------------------------|
D|----------------------------------------------------------|
A|--2------------0------------------------------------------|
D|----------------------------5------------2----------------|



    A million stories that made up a million shattered dreams...
G|----------------------------------------------------------|
D|----------------------------------------------------------|
A|--2------------0------------------------------------------|
D|----------------------------4-------5-------5h7-----------|


    The faces of people I'll never see again.......And i
G|----------------------------------------------------------|
D|----------------------------------------------------------|
A|--2------------0------------------------------------------|
D|----------------------------4-------5-------5h7-----------|


    can't seem to find my way home...
G|----------------------------------------------------------|
D|----------------------------------------------------------|
A|--2------------0------------------------------------------|
D|----------------------------5------------2----------------|


----Chorus----


    Cause it's almost like...
G|----------------------------------------------------------|
D|----------------------------------------------------------|
A|--2------------0------------------------------------------|
D|----------------------------5--4--2--0---0h2p0------------|


    Your heaven's trying everything, to break me down...
G|----------------------------------------------------------|
D|----------------------------------------------------------|
A|--2------------0------------------------------------------|
D|------------------------4-4-5------------4-2-0------------|


    Cause it's almost like...
G|----------------------------------------------------------|
D|----------------------------------------------------------|
A|--2------------0------------------------------------------|
D|----------------------------5--4--2--0---0h2p0------------|


    Your heaven's trying everything, to keep me out...
G|----------------------------------------------------------|
D|----------------------------------------------------------|
A|--2------------0------------------------------------------|
D|------------------------4-4-5------------4-2-0------------|



----Solo----


G|----------------------------------------------------------|
D|----------------------------------------------------------|
A|-----------0-------2--------------------------------------|
D|--0--------------------------5-----2----------------------| X2



----Chorus----


    Cause it's almost like...
G|----------------------------------------------------------|
D|----------------------------------------------------------|
A|--2------------0------------------------------------------|
D|----------------------------5--4--2--0---0h2p0------------|


    Your heaven's trying everything, to break me down...
G|----------------------------------------------------------|
D|----------------------------------------------------------|
A|--2------------0------------------------------------------|
D|------------------------4-4-5------------4-2-0------------|


    Cause it's almost like...
G|----------------------------------------------------------|
D|----------------------------------------------------------|
A|--2------------0------------------------------------------|
D|----------------------------5--4--2--0---0h2p0------------|



    Your heaven's trying everything, your heaven's trying everything to break me...
G|----------------------------------------------------------|
D|----------------------------------------------------------|
A|--2------------0------------------------------------------|
D|------------------------4---5------------4-2-0------------|



----Outro----


    Dooooooooooowwwwwwwwwwwwwwwwnnnnnnnnnnn...
G|----------------------------------------------------------|
D|----------------------------------------------------------|
A|--2------------0------------------------------------------|
D|------------------------4-4-5------------4-2-0------------|


    To break me doooooooooowwwwwwwnnnnnnnn...
G|----------------------------------------------------------|
D|----------------------------------------------------------|
A|--2------------0------------------------------------------|
D|----------------------------5--4--2--0---0h2p0------------|


    To break me doooooowwwwwwn...
G|----------------------------------------------------------|
D|----------------------------------------------------------|
A|--2------------0------------------------------------------|
D|----------------------------4------------5---------7------|


    Your heaven's trying everything, your heaven's trying everything to break me down.
G|----------------------------------------------------------|
D|----------------------------------------------------------|
A|--2---------0---------------------------------------------|
D|----------------------4----------5------------------------|
Suggest correction
What's this?
You can suggest a correction to this tab. Community and Mods will review your correction and vote to approve or reject it.
comments
print report bad tab
guest
You may want to rate the tab now too:
select rating
Please do not post tabs as comments. Select "correction" instead!