Oops, an error
Loading. Please wait.

Far From Home Bass Tab

version 2
version 2

Whole song

Interactive

1,224 views 1 this week
no commentswrite comment
1 2 3 4 5
3 more votes to show rating
add to favorites
launch autoscroll
font size
0
reset
guitar tuner
Autoscroll
slow
fast
+/-
esc
set tempo
stop
Help us to improve Ultimate-Guitar.com Take our survey!
×
Intro: No Bass 

G|---------------|
D|---------------|
A|---------------|
D|---------------|
B|---------------|

"And it's..."

G|----------------------------------------------------------|
D|----------------------------------------------------------|
A|---2-----0-------------------------------------0----------|
D|---------------5-----4-----2----0-------------------4---5-|
B|--------------------------------------2----0--------------|

Cont.

G|---------------|
D|---------------|
A|--2---0--------|
D|---------5---2-|
B|---------------|


"All the places.." "A million stories.."


G|----------------|-------------------------|
D|----------------|-------------------------|
A|--2---0---------|----0--------------------|
D|----------5---2-|--------4---5------------|
B|----------------|-0-------------0-3-5-3-2-|

"The faces of people..."

G|--------------------------------------x-x-|
D|--------------------------------------x-x-|
A|--2---0-------------------0-----------x-x-|
D|----------4---5---5-7---------5---2---x-x-|
B|----------------------0---------------x-x-|

"'Cause it's almost like..."

G|---------------------------------|
D|---------------------------------|
A|--2---0--------------------------|
D|----------2--4--5--4--2--0-0h2-0-|
B|---------------------------------|

"Your Heaven's trying everything..."

G|----------------------------------|
D|----------------------------------|
A|-----0----------------------------|
D|--------0-2--4-4--5---------------|
B|--0-------------------0h3-5-3-2---|

"'Cause it's almost like..."

G|---------------------------------|
D|---------------------------------|
A|--2---0--------------------------|
D|----------2--4--5--4--2--0-0h2-0-|
B|---------------------------------|


"Your Heaven's trying everything to keep me out."


G|--------------------------|
D|--------------------------|
A|--2---0-------------------|
D|--------0-2--4--4--5--5/--|
B|--------------------------|

Solo x2

G|-----------------------------------------------------------------------|
D|-----------------------------------------------------------------------|
A|---------------------------------------2------2---2--------------------|
D|--0---0---0-0-0-0--0-0--2--2-2-2-2--2/---------------2-4-5-4-2-0-0h2-0-|
B|------------------------------------------0-0---0----------------------|

"'Cause it's almost like..."

G|---------------------------------|
D|---------------------------------|
A|-----0---------------------------|
D|----------2--4--5--4--2--0-0h2-0-|
B|--0------------------------------|

"Your Heaven's trying everything..."

G|----------------------------------|
D|----------------------------------|
A|--2--0----------------------------|
D|--------0-2--4-4--5---------------|
B|---------------------0h3-5-3-2----|

"'Cause it's almost like..."

G|---------------------------------|
D|---------------------------------|
A|--2---0--------------------------|
D|----------2--4--5--4--2--0-0h2-0-|
B|---------------------------------|

"Your Heaven's trying everything..."

G|---------------------------------|
D|---------------------------------|
A|--2---0--------------------------|
D|----------0-2-4-4--5-------------|
B|----------------------0-3-5-3-2--|

"To break me down..."

G|---------------------------------|
D|---------------------------------|
A|--2---0--------------------------|
D|----------0-2-4-4-5--------------|
B|---------------------0-3-5-3-2---|


Outro.

G|---------------------------------|
D|---------------------------------|
A|--2---0--------------------------|
D|----------2-4-5-4-2-0------------|
B|----------------------2-0--------|


Hope this helps. Tab made by ear.
Suggest correction
Give kudos to tab author, rate the tab!
1 2 3 4 5
comments
print report bad tab
guest
You may want to rate the tab now too:
select rating
Wanna post a correction for this tab? Suggest correction