Oops, an error
Loading. Please wait.

Lift Me Up bass

version 1
version 1

Whole song

Interactive

1,186 views 15 this week
no commentswrite comment
1 2 3 4 5
2 more votes to show rating
add to favorites
×
Save as Personal and add changes to this tab that will be seen only by you. Learn more ›
×
You can save this tab as Personal to edit and correct it or add notes. All changes will be seen only by you. Learn more »
launch autoscroll
font size
0
reset
guitar tuner
edit
Autoscroll
slow
fast
+/-
esc
set tempo
stop
Author
Difficulty
Quite another bass tab worth undertaking for me, since no one else wanted the challenge. I understand I may be
missing some key parts of the bass, but this is the best I can hear from the song itself, so pardon the errors.
I tried to bunch lyrics together in groups with the bass to make the song flow better, but I might need to 
work on incorporation a bit more. Oh, well.

-Sharky

--------------------------------------------------------------------------------------------------------------

Intro: G|-------------------------------------------------------------------------|
       D|-------------------------------------------------------------------------|
       A|-0-2-2-2-2-2-2-2-2-2-2-2-2-2-2-2-2-2-0-2-2-2-2-2-2-2-2-2-2-2-2-2-2-2-2-2-|
       E|-------------------------------------------------------------------------|

       G|---------------------------------------------------------------------|
       D|---------------------------------------------------------------------|
       A|-0-2-2-2-2-2-2-2-2-2-2-2-2-2-2-2-2-0-2-2-2-2-2-2-2-2-2-2-2-2-2-2-2-2-|
       E|---------------------------------------------------------------------|

       G|----------------------------------------------------|
       D|----------------------------------------------------| X2
       A|-0-2-2-2-2-2-2-2-2-0-2-0-3-0-3-2-0-2-2~-------------|
       E|----------------------------------------3-2-3-5-3-2-|

Verse: G|--------------------------------------------------|
       D|--------------------------------------------------|
       A|-2-2-2-2-2-2-2-2-0-2-0-3-0-3-2-0-2-2~-------------|
       E|--------------------------------------3-2-3-5-3-2-|

          It ain't no mystery: I'm all I have left.

          I'm pushing back and running you over.

       G|----------------------------------------------------|
       D|----------------------------------------------------|
       A|-0-2-2-2-2-2-2-2-2-0-2-0-3-0-3-2-0-2-2~-------------|
       E|----------------------------------------3-2-3-5-3-2-|

          I've been thrown down, run around, beaten till I hit the ground.

          I'm telling you right now that it's over.

       G|--------------------------------------------------|
       D|--------------------------------------------------|
       A|-2-2-2-2-2-2-2-2-0-2-0-3-0-3-2-0-2-2~-------------|
       E|--------------------------------------3-2-3-5-3-2-|

          There's no room for mistakes; all the parts are in place.

          Say what you will, but say it to my face!

       G|----------------------------------------------------|
       D|----------------------------------------------------|
       A|-0-2-2-2-2-2-2-2-2-0-2-0-3-0-3-2-0-2-2~-------------|
       E|----------------------------------------3-2-3-5-3-2-|

          You better back the fuck up, better shut the fuck up.

          I'll do what I want and I'll never give up.

Pre-Chorus: G|---------------------------------------------------------------------------|
            D|---------------------------------------------------------------------------|
            A|-2-2-2-2-0-2-3-2-0-2-2-2-2-0-2-3-2-0-2-2-2-2-0-2-3-2-0---------------------|
            E|-------------------------------------------------------3-3-3-3-3-5-5-5-5-5-|

               (I) won't be broken. (I) won't be tortured. (I) won't be beaten down.

            G|---------------------------------------------------------------------------|
            D|---------------------------------------------------------------------------|
            A|-2-2-2-2-0-2-3-2-0-2-2-2-2-0-2-3-2-0-2-2-2-2-0-2-3-2-0---------------------|
            E|-------------------------------------------------------3-3-3-3-3-5-5-5-5-5-|

               (I) have the answers. (I'll) take the pressure. (I'll) turn it all around!

Chorus: G|-----------------------------------------------------------------------------------|
        D|-----------------------------------------------------------------------------------|
        A|-2-2-2-2-2-2-2-2-2-2-2-2-2-2-2-2-2-2-2-2-2-----------------------------------------|
        E|-------------------------------------------3-3-3-3-3-3-3-3-2-3-5-5-5-5-5-5-5-5-3-5-|

           Lift me up above this, the flames and the ashes.

        G|-----------------------------------------------------------------------------------|
        D|-----------------------------------------------------------------------------------|
        A|-2-2-2-2-2-2-2-2-2-2-2-2-2-2-2-2-2-2-2-2-2-----------------------------------------|
        E|-------------------------------------------3-3-3-3-3-3-3-3-2-3-5-5-5-5-5-5-5-5-3-5-|

           Lift me up and help me to fly away.

        G|-----------------------------------------------------------------------------------|
        D|-----------------------------------------------------------------------------------|
        A|-2-2-2-2-2-2-2-2-2-2-2-2-2-2-2-2-2-2-2-2-2-----------------------------------------|
        E|-------------------------------------------3-3-3-3-3-3-3-3-2-3-5-5-5-5-5-5-5-5-3-5-|

           Lift me up above this, the broken and the empty.

        G|-----------------------------------------------------------------------------------|
        D|-----------------------------------------------------------------------------------|
        A|-2-2-2-2-2-2-2-2-2-2-2-2-2-2-2-2-2-2-2-2-2-----------------------------------------|
        E|-------------------------------------------3-3-3-3-3-3-3-3-2-3-5-5-5-5-5-5-5-5-3-5-|

           Lift me up and help me to fly away (Lift me up!)

Pre-Verse: G|-------------------------------------------------------------------|
           D|-------------------------------------------------------------------|
           A|-0-2-2-2-2-2-2-2-2-2-2-2-2-2-2-2-2-2-0-2-2-2-2-2-2-2-2-2-2-2-2-2-2-|
           E|-------------------------------------------------------------------|

Verse: G|--------------------------------------------------|
       D|--------------------------------------------------|
       A|-2-2-2-2-2-2-2-2-0-2-0-3-0-3-2-0-2-2~-------------|
       E|--------------------------------------3-2-3-5-3-2-|

          I'm gonna change history and enlighten the world.

          Teach 'em how to see through my eyes.

       G|----------------------------------------------------|
       D|----------------------------------------------------|
       A|-0-2-2-2-2-2-2-2-2-0-2-0-3-0-3-2-0-2-2~-------------|
       E|----------------------------------------3-2-3-5-3-2-|

          I'm gonna lash back, check that. Fatal as a heart attack

          Stomp out all the ugliest lies.

       G|--------------------------------------------------|
       D|--------------------------------------------------|
       A|-2-2-2-2-2-2-2-2-0-2-0-3-0-3-2-0-2-2~-------------|
       E|--------------------------------------3-2-3-5-3-2-|

          You can't convince me to change; we ain't on the same page.

          I've had my fill now that there's nothing but rage.

       G|----------------------------------------------------|
       D|----------------------------------------------------|
       A|-0-2-2-2-2-2-2-2-2-0-2-0-3-0-3-2-0-2-2~-------------|
       E|----------------------------------------3-2-3-5-3-2-|

          Best get out of my way 'cause there's nothing to say.

          Is that all you got? Because I ain't got all day!

Pre-Chorus: G|---------------------------------------------------------------------------|
            D|---------------------------------------------------------------------------|
            A|-2-2-2-2-0-2-3-2-0-2-2-2-2-0-2-3-2-0-2-2-2-2-0-2-3-2-0---------------------|
            E|-------------------------------------------------------3-3-3-3-3-5-5-5-5-5-|

               (I) won't be broken. (I) won't be tortured. (I) won't be beaten down.

            G|---------------------------------------------------------------------------|
            D|---------------------------------------------------------------------------|
            A|-2-2-2-2-0-2-3-2-0-2-2-2-2-0-2-3-2-0-2-2-2-2-0-2-3-2-0---------------------|
            E|-------------------------------------------------------3-3-3-3-3-5-5-5-5-5-|

               (I) have the answers. (I'll) take the pressure. (I'll) turn it all around!

Chorus: G|-----------------------------------------------------------------------------------|
        D|-----------------------------------------------------------------------------------|
        A|-2-2-2-2-2-2-2-2-2-2-2-2-2-2-2-2-2-2-2-2-2-----------------------------------------|
        E|-------------------------------------------3-3-3-3-3-3-3-3-2-3-5-5-5-5-5-5-5-5-3-5-|

           Lift me up above this, the flames and the ashes.

        G|-----------------------------------------------------------------------------------|
        D|-----------------------------------------------------------------------------------|
        A|-2-2-2-2-2-2-2-2-2-2-2-2-2-2-2-2-2-2-2-2-2-----------------------------------------|
        E|-------------------------------------------3-3-3-3-3-3-3-3-2-3-5-5-5-5-5-5-5-5-3-5-|

           Lift me up and help me to fly away.

        G|-----------------------------------------------------------------------------------|
        D|-----------------------------------------------------------------------------------|
        A|-2-2-2-2-2-2-2-2-2-2-2-2-2-2-2-2-2-2-2-2-2-----------------------------------------|
        E|-------------------------------------------3-3-3-3-3-3-3-3-2-3-5-5-5-5-5-5-5-5-3-5-|

           Lift me up above this, the broken and the empty.

        G|-----------------------------------------------------------------------------------|
        D|-----------------------------------------------------------------------------------|
        A|-2-2-2-2-2-2-2-2-2-2-2-2-2-2-2-2-2-2-2-2-2-----------------------------------------|
        E|-------------------------------------------3-3-3-3-3-3-3-3-2-3-5-5-5-5-5-5-5-5-3-5-|

           Lift me up and help me to fly away (Lift me up!)

Bridge: G|-------------------------|
        D|-------------------------| X3
        A|-0-2-3-2-2-0-2-2-0-2-3-0-|
        E|-------------------------|

        G|-----------------|
        D|-----------------|
        A|-0-2-3-2-2-------|
        E|-----------3~-0~-|

Solo: G|-------------------------------------------------------------------------|
      D|-------------------------------------------------------------------------| X2
      A|-2-2-2-2-2-0-2-0-2-2-2-2-2-2-0-2-0-2-------------------------------------|
      E|-------------------------------------3-3-3-3-3-2-3-2-3-5-5-5-5-5-3-5-3-5-|

Pre-Chorus: G|---------------------------------------------------------------------------|
            D|---------------------------------------------------------------------------|
            A|-2-2-2-2-0-2-3-2-0-2-2-2-2-0-2-3-2-0-2-2-2-2-0-2-3-2-0---------------------|
            E|-------------------------------------------------------3-3-3-3-0-5-5-5-5-0-|

               (I) won't be broken. (I) won't be tortured. (I) won't be beaten down.

            G|---------------------------------------------------------------------------|
            D|---------------------------------------------------------------------------|
            A|-2-2-2-2-0-2-3-2-0-2-2-2-2-0-2-3-2-0-2-2-2-2-0-2-3-2-0---------------------|
            E|-------------------------------------------------------3-3-3-3-0-5-5-5-5-0-|

               (I) have the answers. (I'll) take the pressure. (I'll) turn it all around!

Chorus: G|-----------------------------------------------------------------------------------|
        D|-----------------------------------------------------------------------------------|
        A|-2-2-2-2-2-2-2-2-2-2-2-2-2-2-2-2-2-2-2-2-2-----------------------------------------|
        E|-------------------------------------------3-3-3-3-3-3-3-3-2-3-5-5-5-5-5-5-5-5-3-5-|

           Lift me up above this, the flames and the ashes.

        G|-----------------------------------------------------------------------------------|
        D|-----------------------------------------------------------------------------------|
        A|-2-2-2-2-2-2-2-2-2-2-2-2-2-2-2-2-2-2-2-2-2-----------------------------------------|
        E|-------------------------------------------3-3-3-3-3-3-3-3-2-3-5-5-5-5-5-5-5-5-3-5-|

           Lift me up and help me to fly away.

        G|-----------------------------------------------------------------------------------|
        D|-----------------------------------------------------------------------------------|
        A|-2-2-2-2-2-2-2-2-2-2-2-2-2-2-2-2-2-2-2-2-2-----------------------------------------|
        E|-------------------------------------------3-3-3-3-3-3-3-3-2-3-5-5-5-5-5-5-5-5-3-5-|

           Lift me up above this, the broken and the empty.

        G|-----------------------------------------------------------------------------------|
        D|-----------------------------------------------------------------------------------|
        A|-2-2-2-2-2-2-2-2-2-2-2-2-2-2-2-2-2-2-2-2-2-----------------------------------------|
        E|-------------------------------------------3-3-3-3-3-3-3-3-2-3-5-5-5-5-5-5-5-5-3-5-|

           Lift me up and help me to fly away (Lift me up!)

Outro: G|-------------------------------------|
       D|-------------------------------------|
       A|-------------------------------------|
       E|-3-3-3-3-3-3-3-2-3-5-5-5-5-5-3-5-3-5-|

          To fly away (Lift me up!)

       G|--------------------------------------------|
       D|--------------------------------------------|
       A|---------------------5-5-5-5-5-4-4-4-4-4-2~-|
       E|-0-0-0-0-0-0-0-0-0-0------------------------|

          To fly away! (Lift me up!)

            
            
Suggest correction
Creating personal tab
Creating personal tab
You can edit any tab online and save it as your Personal.

You can edit, replace or remove any tab part or add personal notes – all changes will be seen only by you.

Personal tabs can be accessed anytime from any device, even offline.
Learn more »
Give kudos to tab author, rate the tab!
1 2 3 4 5
comments
print report bad tab
guest
You may want to rate the tab now too:
select rating
Wanna post a correction for this tab? Suggest correction