Oops, an error
Loading. Please wait.

Lift Me Up tab

version 1
version 1

Whole song

Interactive

33,666 views 21 this week
3 commentsread comments
1 2 3 4 5
x 11
add to favorites
×
Save as Personal and add changes to this tab that will be seen only by you. Learn more ›
×
You can save this tab as Personal to edit and correct it or add notes. All changes will be seen only by you. Learn more »
launch autoscroll
font size
0
reset
how to read this tab
guitar tuner
edit
Autoscroll
slow
fast
+/-
esc
set tempo
stop
This is my first tab and I had to learn it by ear so it is probably wrong in one 
place or another. If I messed up somewhere which I probably did, just drop a comment.

-------------------------------------------------------------------------------
                             LIFT ME UP - Five Finger Death Punch
-------------------------------------------------------------------------------
Tabbed by: KratosGodOfWar
E-mail: Metallica079@gmail.com

Tuning: Drop B (B, F#, B, E, G#, C#)

[Intro]
C#|-------------------------------------------------------------------------|
G#|-------------------------------------------------------------------------|
E |-------------------------------------------------------------------------|
B |-------------------------------------------------------------------------|
F#|--1-0--0-0-000-0-0-0-0-0-0-0-0-0-1-0--0-0-000-0-0-0-0-0-0-0-0-0----------|
B |--1-0--0-0-000-0-0-0-0-0-0-0-0-0-1-0--0-0-000-0-0-0-0-0-0-0-0-0----------|               
          . . ... . . . . . . . . .      . . ... . . . . . . . . . 

C#|-------------------------------------------------------------------------|
G#|-------------------------------------------------------------------------|
E |-------------------------------------------------------------------------|
B |-----------------0-----------------------------0-------------------------|
F#|--1-0--0-0-000-0-0--0-0-0-000-0-1-0--0-0-000-0-0--0-0-0-000-0-1-0--------|
B |--1-0--0-0-000-0-0--0-0-0-000-0-1-0--0-0-000-0-0--0-0-0-000-0-1-0--------|
          . . ... .    . . . ... .      . . ... .    . . . ... .

[Main Riff] x2
C#|-------------------------------------------------------------------------|
G#|-------------------------------------------------------------------------|
E |-------------------------------------------------------------------------|
B |-----------------------------------------------1-----0-----------0-------|
F#|---0-0-000-0-3-5-----6---3---6-5-0-0-0-000-0-0-1-0-0-0-0-0-3-2-1-0-------|
B |---0-0-000-0-----0-0---0---0-----0-0-0-000-0-0-1-0-0-0-0-0-3-2-1-0-------|
      . . ... .     . .   .   .     . . . ... . .   . .   . . . . . 

[Verse] x2  (Only play the extra part in parentheses the second time)
C#|-------------------------------------------------------------------------|
G#|-------------------------------------------------------------------------|
E |-------------------------------------------------------------------------|
B |--0--------0--------0----------7-7---7-7---7-----------------------------|
F#|--0--------0--------0--------0-5-5-0-5-5-0-5-0---------------------------|
B |--0-543765-0-543765-0-543765-0-----0-----0---0-(543765)------------------|
       ......   ......   ...... .     .     .   .      

[Chorus] x4
C#|-------------------------------------------------------------------------|
G#|-------------------------------------------------------------------------|
E |-------------------------------------------------------------------------|
B |----7-7---7-7---7-7---7-7---7---7----------------------------------------|
F#|--0-5-5-0-5-5-0-5-5-0-5-5-0-5-0-5-0-8-----12-10---7-8-----10-8---7-8-----|
B |--0-----0-----0-----0-----0---0---0-8-0-0-------0-----0-0------0---------|
     .     .     .     .     .   .   .   . .       .     . .      .

Now just play this part once before returning to the main riff
C#|-------------------------------------------------------------------------|
G#|-------------------------------------------------------------------------|
E |-------------------------------------------------------------------------|
B |-------------------------------------------------------------------------|
F#|--1-0--0-0-000-0-0-0-0-0-0-0-0-0-1-0--0-0-000-0-0-0-0-0-0-0-0-0----------|
B |--1-0--0-0-000-0-0-0-0-0-0-0-0-0-1-0--0-0-000-0-0-0-0-0-0-0-0-0----------|               
          . . ... . . . . . . . . .      . . ... . . . . . . . . .

[Main Riff] x2
C#|-------------------------------------------------------------------------|
G#|-------------------------------------------------------------------------|
E |-------------------------------------------------------------------------|
B |-----------------------------------------------1-----0-----------0-------|
F#|---0-0-000-0-3-5-----6---3---6-5-0-0-0-000-0-0-1-0-0-0-0-0-3-2-1-0-------|
B |---0-0-000-0-----0-0---0---0-----0-0-0-000-0-0-1-0-0-0-0-0-3-2-1-0-------|
      . . ... .     . .   .   .     . . . ... . .   . .   . . . . . 

[Verse] x2  (Only play the extra part in parentheses the second time)
C#|-------------------------------------------------------------------------|
G#|-------------------------------------------------------------------------|
E |-------------------------------------------------------------------------|
B |--0--------0--------0----------7-7---7-7---7-----------------------------|
F#|--0--------0--------0--------0-5-5-0-5-5-0-5-0---------------------------|
B |--0-543765-0-543765-0-543765-0-----0-----0---0-(543765)------------------|
       ......   ......   ...... .     .     .   .      

[Chorus] x4
C#|-------------------------------------------------------------------------|
G#|-------------------------------------------------------------------------|
E |-------------------------------------------------------------------------|
B |----7-7---7-7---7-7---7-7---7---7----------------------------------------|
F#|--0-5-5-0-5-5-0-5-5-0-5-5-0-5-0-5-0-8-----12-10---7-8-----10-8---7-8-----|
B |--0-----0-----0-----0-----0---0---0-8-0-0-------0-----0-0------0---------|
     .     .     .     .     .   .   .   . .       .     . .      .

[Bridge] x2 (I'm not sure how this is played, this is just my best guess)
C#|-------------------------------------------------------------------------|
G#|-------------------------------------------------------------------------|
E |-------------------------------------------------------------------------|
B |--3/5---8\7-----3/5---8\7-----3/5-3/5---8\7-------2-2-2-5-5-5-8-8-8------|
F#|--1/3-0-6\5-000-1/3-0-6\5-000-1/3-1/3-0-6\5-0-0-0-0-0-0-3-3-3-6-6-6------|
B |------0-----000-----0-----000---------0-----0-0-0------------------------|
         .     ...     .     ...         .     . . .

[Solo]
That I don't have, the rhythm however is just what you play during the chorus
C#|-------------------------------------------------------------------------|
G#|-------------------------------------------------------------------------|
E |-------------------------------------------------------------------------|
B |----7-7---7-7---7-7---7-7---7---7----------------------------------------|
F#|--0-5-5-0-5-5-0-5-5-0-5-5-0-5-0-5-0-8-----12-10---7-8-----10-8---7-8-----|
B |--0-----0-----0-----0-----0---0---0-8-0-0-------0-----0-0------0---------|
     .     .     .     .     .   .   .   . .       .     . .      .

[Verse] x2  (Only play the extra part in parentheses the second time)
C#|-------------------------------------------------------------------------|
G#|-------------------------------------------------------------------------|
E |-------------------------------------------------------------------------|
B |--0--------0--------0----------7-7---7-7---7-----------------------------|
F#|--0--------0--------0--------0-5-5-0-5-5-0-5-0---------------------------|
B |--0-543765-0-543765-0-543765-0-----0-----0---0-(543765)------------------|
       ......   ......   ...... .     .     .   .      

[Chorus] x4
C#|-------------------------------------------------------------------------|
G#|-------------------------------------------------------------------------|
E |-------------------------------------------------------------------------|
B |----7-7---7-7---7-7---7-7---7---7----------------------------------------|
F#|--0-5-5-0-5-5-0-5-5-0-5-5-0-5-0-5-0-8-----12-10---7-8-----10-8---7-8-----|
B |--0-----0-----0-----0-----0---0---0-8-0-0-------0-----0-0------0---------|
     .     .     .     .     .   .   .   . .       .     . .      .


************************************

| (n)  Ghost note
| /    Slide up
| \    Slide down   
| .    Palm Mute

************************************

            
            
Suggest correction
Creating personal tab
Creating personal tab
You can edit any tab online and save it as your Personal.

You can edit, replace or remove any tab part or add personal notes – all changes will be seen only by you.

Personal tabs can be accessed anytime from any device, even offline.
Learn more »
comments
print report bad tab
3 comments total.
-1 reply
Audible Warfare 806 Aug 09, 2013 09:49 PM

No solo, 1*.

0 reply
tmele99 10 Aug 18, 2013 08:49 AM

the -1-3- in the main riff should be -3-5-

0 reply
racing4 10 Jun 30, 2014 03:00 AM

Clearly wrong.

guest
You may want to rate the tab now too:
select rating
Wanna post a correction for this tab? Suggest correction