Oops, an error
Loading. Please wait.

Never Enough tab

version 3
version 3

Whole song

Interactive

3,264 views 1 this week
1 commentread comment
1 2 3 4 5
x 3
add to favorites
×
Save as Personal and add changes to this tab that will be seen only by you. Learn more ›
×
You can save this tab as Personal to edit and correct it or add notes. All changes will be seen only by you. Learn more »
launch autoscroll
font size
0
reset
how to read this tab
guitar tuner
edit
Autoscroll
slow
fast
+/-
esc
set tempo
stop
Author
Never Enough
Five Finger Death Punch
Way of the Fist

Low to High- B-E-A-D-F#-B
BPM 126


Well I have done lots of research and what-not and learned a ton of stuff about 
5FDP's music, hopefully it will result in better tabs. Have to redo a few I was 
working on and especially
this one! More tabs should be in late next week! June 28, 2012

Jason Hook, lead guitarist of 5FDP plays a 7 string, in B standard tuning seeing how most of you
probably don't have a 7, I'm writing it for a 6 string. 

Intro/Verse

B |---------------------------------------------------------------------|
F#|---------------------------------------------------------------------|
D |---------------------------------------------------------------------|
A |-------2----------------2----------------2---------------------------|
E |----2--2-----2-2-----2--2-----2-2-----2--2--------3-------2---1---2--|
B |----0--0-----0-0-----0--0-----0-0-----0--0-----0--5-----0-4-0-3-0-0-0|
       .        . .     .        . .     .        .        . . . . . . .         

Pre Chorus
                                               Csus2                      Am
B |----------------------------------------------------3------------------------0---|
F#|----------------------------------------------------3----3-------------------1---|
D |-------------------------------------------------5----------5--------------2-----|
A |------------2----------------------------------5--------------------------2------|
E |----(2)--2--2--------3-------2---1---2-----3---------------------X-X---0---------|
B |----(0)--0--0-----0--5-----0-4-0-3-0-0-0-------------------------X-X-------------|
        .   .  .     .        . . . . . . .  

Chorus 

B |-------------------------------------------------------------------------3------|
F#|------------------------------------------------------------------------3----3--|
D |--------------------------------------------------------------------5---------5-|
A |---3\4--------2---X-2--------------3\4--------2---X-2------------5--------------|
E |---3\4--------2---X-2--------------3\4--------2---X-2----------3----------------|
B |---5\2----0---0---X-0--0--0--0--0--5\2----0---0---X-0--0--0---------------------|
             .            .  .  .  .         .            .  .
Chorus Harmony/Lead

B |--------------------15--17---------|------------0-------------------|
F#|---(17)-----17------------------17-|------------1-----0-------------|
D |-----------------------------------|--------2---------1-------------|
A |-----------------------------------|-----2------------2----2--------|
E |-----------------------------------|--0--------------------0--------|
B |-----------------------------------|--------------------------0--0--|

Bridge Rhythm

B |----------------------------------------------------------------------------------|
F#|----------------------------------------------------------------------------------|
D |----------------------------------------------------------------------------------|
A |----------------------------------------------------------------------------------|
E |-----------------------/5--7-7-----------------------/5--7-7----------------------|
B |--0-0-0-0---0-0-0-0-0-----------0-0-0-0---0-0-0-0-0-----------0-0-0-0---0-0-0-0---|
     . . . .   . . . . .           . . . .   . . . . .           . . . .   . . . . 

B |-------|-------|-------|-----------------------------------|
F#|-------|-------|-------|-----------------------------------|
D |-----9-|----5--|-------|-----------------------------------|
A |-----9-|--5-5--|-------|-----5-----------------------------|
E |--7--7-|--3-3--|--0--0-|--5--5--------3-------2---1---2-2--|
B |--0--0-|-------|--0--0-|--7--7-----0--5-----0-4-0-3-0-0-0--|
     .  .    . .     .  .    .  .     .        . . . . . . .

Bridge Lead

B |-----------------------------------------------------------------------------------|
F#|---5---5--------5------5--5--5--5--0-----5----------5-----5----5--------5------5---|
D |------------7-------7--------------------------7---------------------7-------7-----|
A |-----------------------------------------------------------------------------------|
E |-----------------------------------------------------------------------------------|
B |-----------------------------------------------------------------------------------|

B |-----------------------------------------------------------------------------------|
F#|-----------------------------------------------------------------------------------|
D |---7----7----------7----9----9-------7----------------------7-----9----9---9-------|
A |--------------10--------------------------10----9-----10---------------------------|
E |-----------------------------------------------------------------------------------|
B |-----------------------------------------------------------------------------------|

B |-----------------------------------------------------------------------------------|
F#|--------------------------------------------8-------------------8---10---10----10--|
D |--7---9----7----9-------7----7----9-----9-------9----9----9------------------------|
A |-----------------------------------------------------------------------------------|
E |-----------------------------------------------------------------------------------|
B |-----------------------------------------------------------------------------------|

B |-----------------------------------------------------------------------------------|
F#|------8----10----10-------------8-----8--------10b---------------------------------|
D |-----------------------------------------------------------------------------------|
A |-----------------------------------------------------------------------------------|
E |-----------------------------------------------------------------------------------|
B |-----------------------------------------------------------------------------------|

Alright! It's new and improved! Hope someone uses this! Great song fun to play enjoy!

Hard to See, No One Gets Left Behind, and Way of the Fist are all on the way, just 
have to write them on the computer!

            
            
Suggest correction
Creating personal tab
Creating personal tab
You can edit any tab online and save it as your Personal.

You can edit, replace or remove any tab part or add personal notes – all changes will be seen only by you.

Personal tabs can be accessed anytime from any device, even offline.
Learn more »
Give kudos to tab author, rate the tab!
1 2 3 4 5
comments
print report bad tab
1 comment total.
0 reply
49erhometown 186 Aug 06, 2013 07:24 PM

he doesnt have a seven string. count his guitar on his gibson m4 sherman. theres only 6

guest
You may want to rate the tab now too:
select rating
Wanna post a correction for this tab? Suggest correction