Oops, an error
Loading. Please wait.

No One Gets Left Behind tab

version 5
version 5

Whole song

Interactive

275 views 1 this week
no commentswrite comment
1 2 3 4 5
2 more votes to show rating
add to favorites
×
Save as Personal and add changes to this tab that will be seen only by you. Learn more ›
×
You can save this tab as Personal to edit and correct it or add notes. All changes will be seen only by you. Learn more »
launch autoscroll
font size
0
reset
how to read this tab
guitar tuner
edit
Autoscroll
slow
fast
+/-
esc
set tempo
stop
Song Title: No One Gets Left Behind
Artist: Five Finger Death Punch
Album: War Is The Answer
Tuning: Drop B (B-F#-B-E-G#-C#)
Guitar 1: Lead
Guitar 2: Rhythm

Tabbed by Chris Sedberry
Email @ chris.sedberry@yahoo.com
Email me if you have any requests or concerns of any of my tablatures or if they need
corrected. I will get to you ASAP.
[Note]: I didn't copyright this from a 5FDP tablature book, nor did I steal this from
anyone. I figured out this whole song by listening to it and practicing it constantly.


[Intro] (0:00-0:11)

Gtr 1:
| ----------------------------------------------------------------------|
| ----------------------------------------------------------------------|
| ----17-16-------17-16------17-16------17-16------17-16-14-------------|
| -14----------14---------14---------14---------14----------------------|  x4
| ----------------------------------------------------------------------|
| ----------------------------------------------------------------------|

Gtr 2:

| -------------------------------------------------------------|
| -------------------------------------------------------------|
| -0-2--3-2--0-2----------0-2--3-2--0-2------------------------|     x2
| -0-2--3-2--0-2----------0-2--3-2--0-2------------3200--------|
| -0-2--3-2--0-2----------0-2--3-2--0-2---0-0-0----------3200--|
                                          * * *    ****  ****

[Verse] (0:12-0:36)

Gtr 1 & 2:

| --------------------------------------|
| --------------------------------------|
| --------------------------------------|
| -0-2--3-2--0-2------------------------|        x8
| -0-2--3-2--0-2------------3200--------|
| -0-2--3-2--0-2---0-0-0----------3200--|
                   * * *    ****  ****

Lyrics (Verse):

No one gets left behind - another fallen soul
No one gets left behind - another broken home
No one gets left behind - we stand and fight together
No one gets left behind - but we all die alone

Gtr 1:

| -----------------------------------------------------------------------|
| -----------------------------------------------------------------------|
| ----17-16-------17-16-------17-16--------17-16--------17-16-14---------|
| -14----------14----------14-----------14-----------14------------------| x4
| -----------------------------------------------------------------------|
| -----------------------------------------------------------------------|

Gtr 2:

| --------------------------------------------------------------|
| --------------------------------------------------------------|
| --------------------------------------------------------------|
| -0-2--3-2--0-2----------0-2--3-2--0-2-------------------------|     x2
| -0-2--3-2--0-2----------0-2--3-2--0-2------------3200---------|
| -0-2--3-2--0-2----------0-2--3-2--0-2-------------------3200--|
                                                   ****   ****

Politicians, bathing in their greed
No idea on how to be all they can be


[Chorus] (0:49-1:13)
Gtr 2:

| ------------------------|------------------------|
| ------------------------|------------------------|
| ------------------------|------------------------|
| -2-----2-----2(2)---2(2)|-5-----5-----5(5)---5(5)|
| -0-0-0-0-0-0-0(0)-0-0(0)|-5-----5-----5(5)---5(5)|
| ------------------------|-5-5-5-5-5-5-5(5)-5-5(5)|
     * *   * *      * *       * *   * *      *
| ------------------------| ------------------------| ------------|
| ------------------------| ------------------------| ------------|
| ------------------------| ------------------------| ------------|  x2
| -3-----3-----3(3)---3(3)| -2-----2-----2(2)---2(2)| -3(3)---5(5)|
| -3-----3-----3(3)---3(3)| -2-----2-----2(2)---2(2)| -3(3)---5(5)|
| -3-3-3-3-3-3-3(3)-3-3(3)| -2-2-2-2-2-2-2(2)-2-2(2)| -3(3)---5(5)|
     * *   * *      *          * *   * *      *        

(Will be continued) [Will Figure out Gtr 1 Chrous]

[Bridge] (2:02-2:27)
Gtr 1 & 2:
| --------------------------|
| --------------------------|
| --------------------------|
| -0-2-3-0-3-2-0-3-2-0-2----|   x8
| -0-2-3-0-3-2-0-3-2-0-2----|
| -0-2-3-0-3-2-0-3-2-0-2----|
   * * * * * * * * * * *

            
            
Suggest correction
Creating personal tab
Creating personal tab
You can edit any tab online and save it as your Personal.

You can edit, replace or remove any tab part or add personal notes – all changes will be seen only by you.

Personal tabs can be accessed anytime from any device, even offline.
Learn more »
Give kudos to tab author, rate the tab!
1 2 3 4 5
comments
print report bad tab
guest
You may want to rate the tab now too:
select rating
Wanna post a correction for this tab? Suggest correction