Oops, an error
Loading. Please wait.

Remember Everything tab

version 1
version 1

Whole song

Interactive

59,829 views 231 this week
5 commentsread comments
1 2 3 4 5
x 12
add to favorites
×
Save as Personal and add changes to this tab that will be seen only by you. Learn more ›
×
You can save this tab as Personal to edit and correct it or add notes. All changes will be seen only by you. Learn more »
launch autoscroll
font size
0
reset
how to read this tab
guitar tuner
edit
Autoscroll
slow
fast
+/-
esc
set tempo
stop
Hey guys, this is  Remember Everything. This is one of my favorite songs. Ill put 
the rest up as i figure it out. Remember im only 16 so im still new at this.
Contributor: 49erhometown
email: spurs49ersgiants4life@yahoo.com
Tuning low to high A-E-A-D-F#-B
Its not 100% but its close

                                                      Don't play this
[Intro]                                                 on second time
B |--------------------------------------------------|-----------------|
F#|o-------------------------------------------------|----------------o|
D |--------6-4-------------6-4-----------------------|-----------------|
A |------7-----6---------7-----6-7-4-----4-7-6-----4-|----4-7-6--------|
E |o---9-----------9---9---------------4-------7-----|--4-------7---7-o|
A |--0-----------0---0---------------4-----------4---|4-----------7----|


on second time play this:
B |-----------------|
F#|-0---------------|
D |-4---------------|
A |-4---------------|
E |-----------------|
A |-----------------|


  [Verse]                                             Don't play this part
                                                      on the second time
B |--------------------------------------------------|----------------|
F#|o-------------------------------------------------|---------------o|
D |--------6-4-------------6-4-----------------------|----------------|
A |------7-----6---------7-----6-7-4-----4-7-6-----4-|---4-7-6--------|
E |o---9-----------9---9---------------4-------7-----|-4-------7---7-o|
A |--0-----------0---0---------------4-----------4---|4-----------7---|

  on second time play this:
B |-----------------------------------------------------------------------|
F#|-------2-0-----------3---2----------------------------------5-------9--|
D |-----2-----1--2--------------4--------------------------------6------9-|
A |---2---------------4---4---4--------7--6---4----4--2--4---6--------9---|
E |-0----------0----2----------------4--4---4-------5-------4--------7----|
A |--------------------------------4-------------0------------------------|


[Chorus]

B |--------------------------------------------------------|-------------|
F#|o-------------------------------------------------------|------------o|
D |--2--------2--2--4--------4--4-----------------7------6-|-------------|
A |--2--------2--2--4--------4--4--4--------4--4--7------6-|--x-x-x-x----|
E |o-0--------0--0--2--------2--2--4--------4--4--5------4-|--x-x-x-x---o|
A |--------------------------------4--------4--4-----------|--x-x-x-x----|
                                                       On second time 
                                                       hold this chord:
                                                         |---------------|
                               dont play this            |---------------|
                               on second chorus          |---------------|
                                                         |-x-x-x-x-4~~~~-|
                                                         |-x-x-x-x-4~~~~-|
                                                         |-x-x-x-x-4~~~~-|


Repeat Verse (for clean guitar) 
Distorted guitar is here: (just listen, you will hear when to play)

B |------------|                  |-----|
F#|------------|                  |-----|Then go back to playing
D |------------|                  |-6~~-|the muted part until:
A |----------4-|(Just play this   |-6~~-|
E |----------4-|muted a lot until |-4~~-|Play this again too but quickly 
A |-\\\12----4-|you play this):   |-----|transition to next part
           *

[Pre-verse]

 You will hear when this happens, i believe it is the same as when the 
change happens in the clean part

B |-------------------------|
F#|-------------------------| Strum as you like for the chords
D |-4------------4------6---|
A |-4-----4------4------6---|
E |-2-----4------2------4---|
A |-------4-----------------|

Repeat Chorus


[Bridge]

B |-------------------------------------------------------| Strum as 
F#|-------------------------------------------------------| you like
D |-2------------4------7---6----2-----------4----7----6--|
A |-2-----4------4------7---6----2-----4-----4----7----6--|
E |-0-----4------2------5---4----0-----4-----2----5----4--|
A |-------4----------------------------4------------------|


[Solo]

Havent figured it out yet, will update after i figure it out but i am busy with 
high school still so it is in the works. 

Repeat chorus a few times and end on this chord

B |-----|
F#|-----|
D |-2---|
A |-2---|
E |-0---|
A |-----|

Thanks hope you enjoy, please vote!!



************************************

| x  Dead note
| \  Slide down
| ~  Vibrato

************************************

            
            
Suggest correction
Creating personal tab
Creating personal tab
You can edit any tab online and save it as your Personal.

You can edit, replace or remove any tab part or add personal notes – all changes will be seen only by you.

Personal tabs can be accessed anytime from any device, even offline.
Learn more »
comments
print report bad tab
5 comments total. Showing first comments.
0 reply
49erhometown 186 Aug 10, 2013 07:48 PM

if anybody wants to help out with the solo i will give them credit

0 reply
Jadestrat2011 113 Sep 19, 2013 05:23 PM

thanks man for the tab. I'm in the process of GPing it. Don't worry bro i WILL make sure to give you credit.

0 reply
49erhometown 186 Sep 21, 2013 07:25 PM

alright, and if you figure out the solo email me the tab and i can add it here so we can make sure that all viewers can see it

guest
You may want to rate the tab now too:
select rating
Wanna post a correction for this tab? Suggest correction