Oops, an error
Loading. Please wait.

Remember Everything tab

version 4
version 4

Whole song

Interactive

2,110 views 6 this week
1 commentread comment
1 2 3 4 5
x 3
add to favorites
×
Save as Personal and add changes to this tab that will be seen only by you. Learn more ›
×
You can save this tab as Personal to edit and correct it or add notes. All changes will be seen only by you. Learn more »
launch autoscroll
font size
0
reset
how to read this tab
guitar tuner
edit
Autoscroll
slow
fast
+/-
esc
set tempo
stop
Author
Difficulty
I figured I'd try to tab out such a somber song in Standard tuning to make it a more complex tabbing. Lyrics on
bottom of page.

Intro: e|-----0-4-2-----------0-4-2---0---------------------------------|
       B|---2-------4-0-2---2-------4---2-------5-4-------------5-4-----|
       G|-------------------------------------6-----4---6-----6-----4-4-| 
       D|-----------------------------------6---------6-----6---------4-|
       A|-0---------------0---------------4---------------4-----------2-|
       E|---------------------------------------------------------------|

       e|-----0-4-2-----------0-4-2---0------------------------|
       B|---2-------4-0-2---2-------4---2-------5-4------------|
       G|-------------------------------------6-----4---6-6~-4-|
       D|-----------------------------------6---------6---6~-4-|
       A|-0---------------0---------------4---------------4~-2-|
       E|------------------------------------------------------|

Verse: e|-----0-4-2-----------0-4-2---0---------------------------------|
       B|---2-------4-0-2---2-------4---2-------5-4-------------5-4-----|
       G|-------------------------------------6-----4---6-----6-----4-9-| 
       D|-----------------------------------6---------6-----6---------9-|
       A|-0---------------0---------------4---------------4-----------7-|
       E|---------------------------------------------------------------|

       e|-----0-4-2-----------0-4-2---0-----------------------------------|
       B|---2-------4-0-2---2-------4---2-------5-4---------------7-------|
       G|-------------------------------------6-----4---6-----9-----9-----|
       D|-----------------------------------6---------6-----9---9-----9---|
       A|-0---------------0---------------4---------------7-------------7-|
       E|-----------------------------------------------------------------|

Pre-Chorus: e|-----------------------------------------------------------------|
            B|-----------------------------------------------------------------|
            G|---------------------6-------6-----------------------------------|
            D|-----4-------4-----6---6---6---6-----7-------7-------6-------7---|
            A|---4---4---4---4-4-------4---------7---7---7---7---6---6---7---7-|
            E|-2-------2-----------------------5-------5-------4-------9-------|

Chorus: e|------------------------------------------------------|
        B|------------------------------------------------------|
        G|-9-9~-x-999-x-----------------------------------------|
        D|-9-9~-x-999-x-9-9~-x-999-x-4-4~-x-444-x-7-7-xx-9-9-xx-|
        A|-7-7~-x-777-x-9-9~-x-999-x-4-4~-x-444-x-7-7-xx-9-9-xx-|
        E|--------------7-7~-x-777-x-2-2~-x-222-x-5-5-xx-7-7-xx-|

        e|---------------------------------------------------------|
        B|---------------------------------------------------------|
        G|-6-6~-x-666-x-----------------------------------------6~-|
        D|-6-6~-x-666-x-6-6~-x-666-x-4-4~-x-444-x-7-7-xx-9-9-xx-6~-|
        A|-4-4~-x-444-x-6-6~-x-666-x-4-4~-x-444-x-7-7-xx-9-9-xx-4~-|
        E|--------------4-4~-x-444-x-2-2~-x-222-x-5-5-xx-7-7-xx----|

Verse: e|-----0-4-2-----------0-4-2---0---------------------------------|
       B|---2-------4-0-2---2-------4---2-------5-4-------------5-4-----|
       G|-------------------------------------6-----4---6-----6-----4-9-| 
       D|-----------------------------------6---------6-----6---------9-|
       A|-0---------------0---------------4---------------4-----------7-|
       E|---------------------------------------------------------------|

       e|-----0-4-2-----------0-4-2---0-----------------------------------|
       B|---2-------4-0-2---2-------4---2-------5-4---------------7-------|
       G|-------------------------------------6-----4---6-----9-----9-----|
       D|-----------------------------------6---------6-----9---9-----9---|
       A|-0---------------0---------------4---------------7-------------7-|
       E|-----------------------------------------------------------------|

Pre-Chorus: e|-----------------------------------------------------------------|
            B|-----------------------------------------------------------------|
            G|---------------------6-------6-----------------------------------|
            D|-----4-------4-----6---6---6---6-----7-------7-------6-------7---|
            A|---4---4---4---4-4-------4---------7---7---7---7---6---6---7---7-|
            E|-2-------2-----------------------5-------5-------4-------9-------|

Chorus: e|------------------------------------------------------|
        B|------------------------------------------------------|
        G|-9-9~-x-999-x-----------------------------------------|
        D|-9-9~-x-999-x-9-9~-x-999-x-4-4~-x-444-x-7-7-xx-9-9-xx-|
        A|-7-7~-x-777-x-9-9~-x-999-x-4-4~-x-444-x-7-7-xx-9-9-xx-|
        E|--------------7-7~-x-777-x-2-2~-x-222-x-5-5-xx-7-7-xx-|

        e|---------------------------------------------------------|
        B|---------------------------------------------------------|
        G|-6-6~-x-666-x-----------------------------------------6~-|
        D|-6-6~-x-666-x-6-6~-x-666-x-4-4~-x-444-x-7-7-xx-9-9-xx-6~-|
        A|-4-4~-x-444-x-6-6~-x-666-x-4-4~-x-444-x-7-7-xx-9-9-xx-4~-|
        E|--------------4-4~-x-444-x-2-2~-x-222-x-5-5-xx-7-7-xx----|

Bridge: e|-----------------------------------------------------------------|
        B|-----------------------------------------------------------------|
        G|-----------------6-6-6-6-6-6-6-6-------------------------4-4-4-4-|
        D|-7-7-7-7-7-7-7-7-6-6-6-6-6-6-6-6-7-7-7-7-7-7-7-7-2-2-2-2-4-4-4-4-|
        A|-7-7-7-7-7-7-7-7-4-4-4-4-4-4-4-4-7-7-7-7-7-7-7-7-2-2-2-2-2-2-2-2-|
        E|-5-5-5-5-5-5-5-5-----------------5-5-5-5-5-5-5-5-0-0-0-0---------|

        e|-----------------------------------------------------------------|
        B|-----------------------------------------------------------------|
        G|-----------------6-6-6-6-6-6-6-6-4-4-4-4-4-4-4-4-4-4-4-4-4-4-4-4-|
        D|-7-7-7-7-7-7-7-7-6-6-6-6-6-6-6-6-4-4-4-4-4-4-4-4-4-4-4-4-4-4-4-4-|
        A|-7-7-7-7-7-7-7-7-4-4-4-4-4-4-4-4-2-2-2-2-2-2-2-2-2-2-2-2-2-2-2-2-|
        E|-5-5-5-5-5-5-5-5-------------------------------------------------|

        e|-----0-4-2-----------0-4-2---0---|
        B|---2-------4-0-2---2-------4---2-|
        G|---------------------------------| 
        D|---------------------------------|
        A|-0---------------0---------------|
        E|---------------------------------|

Lead Solo: e|-11~-7h9p7~-0227p5~-0202h4~-----2~----------------------------|
           B|----------------------------2424---54~-024h5p4~-00-5424575455-|
           G|--------------------------------------------------------------|
           D|--------------------------------------------------------------|
           A|--------------------------------------------------------------|
           E|--------------------------------------------------------------|

           e|----------------------4h9-14~-0/12p11p9p7h9h11h12-14p12p11h14p12p11h14p12p11-11h12h14p12-19~-|
           B|-245457579579579020405-----------------------------------------------------------------------|
           G|---------------------------------------------------------------------------------------------|
           D|---------------------------------------------------------------------------------------------|
           A|---------------------------------------------------------------------------------------------|
           E|---------------------------------------------------------------------------------------------|

Chorus: e|------------------------------------------------------|
        B|------------------------------------------------------|
        G|-9-9~-x-999-x-----------------------------------------|
        D|-9-9~-x-999-x-9-9~-x-999-x-4-4~-x-444-x-7-7-xx-9-9-xx-|
        A|-7-7~-x-777-x-9-9~-x-999-x-4-4~-x-444-x-7-7-xx-9-9-xx-|
        E|--------------7-7~-x-777-x-2-2~-x-222-x-5-5-xx-7-7-xx-|

        e|---------------------------------------------------------|
        B|---------------------------------------------------------|
        G|-6-6~-x-666-x-----------------------------------------6~-|
        D|-6-6~-x-666-x-6-6~-x-666-x-4-4~-x-444-x-7-7-xx-9-9-xx-6~-|
        A|-4-4~-x-444-x-6-6~-x-666-x-4-4~-x-444-x-7-7-xx-9-9-xx-4~-|
        E|--------------4-4~-x-444-x-2-2~-x-222-x-5-5-xx-7-7-xx----|

Outro: e|------------------------------------------------------|
       B|------------------------------------------------------|
       G|-9-9~-x-999-x-----------------------------------------|
       D|-9-9~-x-999-x-9-9~-x-999-x-4-4~-x-444-x-7-7-xx-9-9-xx-|
       A|-7-7~-x-777-x-9-9~-x-999-x-4-4~-x-444-x-7-7-xx-9-9-xx-|
       E|--------------7-7~-x-777-x-2-2~-x-222-x-5-5-xx-7-7-xx-|

       e|---------------------------------------------------------|
       B|---------------------------------------------------------|
       G|-6-6~-x-666-x-----------------------------------------6~-|
       D|-6-6~-x-666-x-6-6~-x-666-x-4-4~-x-444-x-7-7-xx-9-9-xx-6~-|
       A|-4-4~-x-444-x-6-6~-x-666-x-4-4~-x-444-x-7-7-xx-9-9-xx-4~-|
       E|--------------4-4~-x-444-x-2-2~-x-222-x-5-5-xx-7-7-xx----|

-------------------------------------------------------------------------------------------------------
Lyrics: Verse: Dear Mother, I love you. I'm sorry, I wasn't good enough.

               Dear Father, forgive me 'cause in your eyes I just never added up.

        Pre-Chorus: In my heart I know I failed you, but you left me here alone.

        Chorus: If I could hold back the rain, would you numb the pain? 'cause I remember everything.

                If I could help you forget, would you take my regrets? 'cause I remember everything.

        Verse: But dear brother, just don't hate me for never standing by you or being by your side.

               Dear sister, please don't blame me. I only did what I thought was truly right.

       Pre-Chorus: It's a long and lonely road, when you know you walk alone

       Chorus: If I could hold back the rain, would you numb the pain? 'cause I remember everything.

                If I could help you forget, would you take my regrets? 'cause I remember everything.

       Bridge: I feel like running away, I'm still so far from home.

               You say I'll never change but what the fuck do you know?!?

               I'll burn it all to the ground, before I let you run

               Please forgive me, I can't forgive you now. (I remember everything.)

       Chorus: If I could hold back the rain, would you numb the pain? 'cause I remember everything.

               If I could help you forget, would you take my regrets? 'cause I remember everything.

       Outro: It all went by so fast; I still can't change the past. I always will remember everything.

              If we could start again, would that change the end? We remember everything.

            
            
Suggest correction
Creating personal tab
Creating personal tab
You can edit any tab online and save it as your Personal.

You can edit, replace or remove any tab part or add personal notes – all changes will be seen only by you.

Personal tabs can be accessed anytime from any device, even offline.
Learn more »
Give kudos to tab author, rate the tab!
1 2 3 4 5
comments
print report bad tab
1 comment total.
-1 reply
the_tabber_b 10 Jan 23, 2016 06:08 PM

didn't like this contribution

guest
You may want to rate the tab now too:
select rating
Wanna post a correction for this tab? Suggest correction