Oops, an error
Loading. Please wait.

The Agony Of Regret Cold Tab

version 1
version 1

Whole song

Interactive

5,248 views 21 this week
6 commentsread comments
1 2 3 4 5
excellent!
x 6
add to favorites
launch autoscroll
font size
0
reset
how to read this tab
guitar tuner
Tab Pro tools
  • play this tab
  • loop segment
  • change instrument
  • show fretboard
  • metronome
×
Best way to learn
"The Agony Of Regret Cold"
Autoscroll
slow
fast
+/-
esc
set tempo
stop
Contributor
Difficulty
Tuning
intermediate
B E A D F# B
The Agony of Regret
Five Finger Death Punch

Tuning: Standard B

This a beautiful and strong piece of guitar. So make sure your guitar is tuned in 
standerd B (B E A D F# B). Listen to the song for the rythm.

For the most beautiful sound I suggest to pick everything but the hammer-on part. You 
can play that part like bass players.

NOTE: When tuning your guitar this low it will easily get out of tune. If you play for a 
long time it will stay in tune. So the first 10 minutes you'll need to re-tune pretty much.


B|-----------------------------------|-----------------------------------|
F#---------------0-------------------|---------------0-------------------|
D|-----------2----------2-------2----|-----------2----------2------2-----|
A|-------5------------------5--------|-------5------------------5--------|
E|-----------------------------------|-----------------------------------|
B|---0-------------------------------|---0-------------------------------|

B|---------------------------------|----------------0--------------------------------------|
F#---------------0-----------------|------------1-------1----1-----------------------------|
D|-----------2----------2----------|--------4--------------4-------------------------------|
A|-------5------------------3------|-------------------------------------------------------|
E|---------------------------------|---0------------------------------------5--------------|
B|---3-----------------------------|---------------------------------0h3h5-----5--3--------|

Play twice

B|-------------------------------------|----------------------------------|
F#-----------0----------------0--------|----------0-------------0---------|
D|-------------------------------------|----------------------------------|
A|-------5------5---------5-------5----|------7-------7------7------7-----|
E|----3--------------3-----------------|---5-------------5-------------5--|
B|-------------------------------------|----------------------------------|

B|-------------------------------------|----------------------------------|
F#-----------0----------------0--------|----------0-----------------------|
D|-------------------------------------|----------------------------------|
A|-------5------5---------5-------5----|------7-------7------9------9-----|
E|----3--------------3-----------------|---5-------------/7------7--------|
B|-------------------------------------|----------------------------------|

B|-------------------------------------|----------------------------------|
F#-----------0----------------0--------|----------0-------------0---------|
D|-------------------------------------|----------------------------------|
A|-------5------5---------5-------5----|------7-------7------7------7-----|
E|----3--------------3-----------------|---5-------------5-------------5--|
B|-------------------------------------|----------------------------------|

B|------------------------------------------|
F#------------------------------------------|
D|------------------------------------------|
A|------------------------------------------|
E|-----7--7-----7--7------7-7------7--7-----|
B|--5--------5---------5--------5-----------|

Enjoy!
comments
print report bad tab
6 comments total. Showing first comments.
+2 reply
ATalmidim wrote on January 29 2014, 12:27 pm

i think the bar of the intro is supposed to be like this-
B|-----------------------------------|-----------------------------------|
F#---------------0-------------------|---------------0-------------------|
D|-----------2----------2-------2----|-----------2----------2------2-----|
A|-------5------------------5--------|-------5------------------5--------|
E|-----------------------------------|-----------------------------------|
B|---0-------------------------------|---0-------------------------------|
with a 5 not a 3 :P But i might be wrong. it sounds better to me though other than that, Great Tab!
5 Stars.

0 reply
MrJens wrote on January 29 2014, 12:40 pm

Oops, you are totally right! I play the 5, but i've just written it wrong.
Thanks to let me know man!

0 reply
ATalmidim wrote on January 29 2014, 02:35 pm

Np haha gotta say it again great job!

I want to post or [tab]
guest
You may want to rate the tab now too:
select rating
Please do not post tabs as comments. Select "correction" instead!