Oops, an error
Loading. Please wait.

The Bleeding bass

version 2
version 2

Whole song

Interactive

170 views 1 this week
no commentswrite comment
1 2 3 4 5
3 more votes to show rating
add to favorites
×
Save as Personal and add changes to this tab that will be seen only by you. Learn more ›
×
You can save this tab as Personal to edit and correct it or add notes. All changes will be seen only by you. Learn more »
launch autoscroll
font size
0
reset
guitar tuner
edit
Autoscroll
slow
fast
+/-
esc
set tempo
stop
-------------------------------------------------------------------------------
                             The Bleeding - Five Finger Death Punch
-------------------------------------------------------------------------------
Tabbed by: 
E-mail: peters2016@blackpinecircle.org

Tuning:

You want to wait for four measures before you start, because there is no bass in the intro.
You play the first two little jams for the whole time you don't play the chorus
   1 2 3 4 / 1 2 3 4 / 1 2 3 4 / 1 2 3 4 /
F|---------------------------------------------------------------------------|
C|---------------------------------------------------------------------------|
G|---------------------------------------------------------------------------|
C|-0-0-------0-0-------8-8-------10-10---------------------------------------|x3

    1 2 3 4 / 1 2 3 4 / 1 2 3 4 / 1 2 3 4 /
F|---------------------------------------------------------------------------|
C|---------------------------------------------------------------------------|
G|------------3-3-------1-1-------3-3----------------------------------------|
C|--0-0----------------------------------------------------------------------|x2

Repeat first two parts here except it is
x2
x2

 Chorus
   1 2 3 4 / 1 2 3 4 / 1 2 3 4 / 
F|---------------------------------------------------------------------------|
C|---------------------------------------------------------------------------|
G|---------------------------------------------------------------------------|
C|--0-0-0-0---0-0-0-0---0-3-5-7----------------------------------------------|x2


| /  slide up
| \  slide down
| h  hammer-on
| p  pull-off
| ~  vibrato
| +  harmonic
| x  Mute note
===============================================================================
If you have any suggestions please email me, I want to make it as perfect as possible.
Any feed back will be greatly appreciated, because this is my first tab.

            
            
Suggest correction
Creating personal tab
Creating personal tab
You can edit any tab online and save it as your Personal.

You can edit, replace or remove any tab part or add personal notes – all changes will be seen only by you.

Personal tabs can be accessed anytime from any device, even offline.
Learn more »
Give kudos to tab author, rate the tab!
1 2 3 4 5
comments
print report bad tab
guest
You may want to rate the tab now too:
select rating
Wanna post a correction for this tab? Suggest correction