Oops, an error
Loading. Please wait.

Under And Over It bass

version 2
version 2

Whole song

  • Tabbed on a 4 string bass in B standard tuning (BE... Show more

Interactive

232 views 3 this week
no commentswrite comment
1 2 3 4 5
2 more votes to show rating
add to favorites
×
Save as Personal and add changes to this tab that will be seen only by you. Learn more ›
×
You can save this tab as Personal to edit and correct it or add notes. All changes will be seen only by you. Learn more »
launch autoscroll
font size
0
reset
guitar tuner
edit
Autoscroll
slow
fast
+/-
esc
set tempo
stop
About this tab version
Tabbed on a 4 string bass in B standard tuning (BEAD), but could be played on a 5 string bass in standard tuning (BEADG) too as no notes played on the G string. Was this info helpful? Yes No
Title: Under And Over It
Artist: Five Finger Death Punch
Album: American Capitalist
Tuning: B Standard Tuning (BEAD)
Tab Author: Pearce Hamblin (The Bass Diaries)

  [Intro]
D|--------|--------|--------|--------|--------|--------|--------|------------------------|
A|--------|--------|--------|--------|--------|--------|--------|------------------------|
E|--------|--------|--------|--------|--------|--------|--------|-----7\\\\7\\\\7\\\\7---|
B|--------|--------|--------|--------|--------|--------|--------|------------------------|


D|---------------------------------|---------------------------------|---------------------------------|
A|---------------------------------|---------------------------------|---------------------------------|
E|---------------------------------|---------------------------------|---------------------------------|
B|-0---0---0---0---0---1---0---0---|-0---0---0---0---0---1---0---0---|-0---0---0---0---0---1---0---0---|


D|---------------------------------|---------------------------------|---------------------------------|
A|---------------------------------|---------------------------------|---------------------------------|
E|---------------------------------|---------------------------------|---------------------------------|
B|-----0---0---0---0---1---1---0---|-0---0---0---0---0---1---0---0---|-0---0---0---0---0---1---0---0---|

                                                                      [Verse 1]
D|---------------------------------|---------------------------------|---------------------------------|
A|---------------------------------|---------------------------------|---------------------------------|
E|---------------------------------|---------------------------------|---------------------------------|
B|-0---0---0---0---0---1---0---0---|-----0---0---0---0---1---1---0---|-0---0---0---0---0---1---0---0---|


D|---------------------------------|---------------------------------|---------------------------------|
A|---------------------------------|---------------------------------|---------------------------------|
E|---------------------------------|---------------------------------|---------------------------------|
B|-0---0---0---0---0---1---0---0---|-0---0---0---0---0---1---0---0---|-----0---0---0---0---1---1---0---|


D|---------------------------------|---------------------------------|---------------------------------|
A|---------------------------------|---------------------------------|---------------------------------|
E|---------------------------------|---------------------------------|---------------------------------|
B|-0---0---0---0---0---1---0---0---|-0---0---0---0---0---1---0---0---|-0---0---0---0---0---1---0---0---|


D|---------------------------------|---------------------------------|---------------------------------|
A|---------------------------------|---------------------------------|---------------------------------|
E|---------------------------------|---------------------------------|---------------------------------|
B|-----0---0---0---0---1---1---0---|-0---0---0---0---0---1---0---0---|-0---0---0---0---0---1---0---0---|


D|---------------------------------|---------------------------------|------------------------------|
A|---------------------------------|---------------------------------|------------------------------|
E|---------------------------------|---------------------------------|------------------------------|
B|-0---0---0---0---0---1---0---0---|-----0---0---0---0---1---1---0---|-0---0---0---0---0---1---0----|


D|------------------------------|---------------------------------|------------------------------|
A|------------------------------|---------------------------------|------------------------------|
E|------------------------------|---------------------------------|------------------------------|
B|-X---0---0---0---0---1---0----|-0---0---0---0---0---1---0---0---|----------------------///7----|

  [Chorus 1]
D|---------------------------------|---------------------------------|---------------------------------|
A|-------------------------0---0---|-0---0---0---0---0---0---0---0---|---------------------------------|
E|---------------------------------|---------------------------------|-0---0---0---0---0---0---3---3---|
B|-0---0---0---0---0---0-----------|---------------------------------|---------------------------------|


D|---------------------------------|---------------------------------|---------------------------------|
A|---------------------------------|-------------------------0---0---|-0---0---0---0---0---0---0---0---|
E|-3---3---2---0---3---3---3---3---|---------------------------------|---------------------------------|
B|---------------------------------|-0---0---0---0---0---0-----------|---------------------------------|


D|---------------------------------|-----------------2---0---0---2---|---------------------------------|
A|---------------------------------|---------------------------------|-2---2---2---2---2---2---0---0---|
E|-0---0---0---0---0---0---3---3---|-3---3---2---0-------------------|---------------------------------|
B|---------------------------------|---------------------------------|---------------------------------|


D|---------------------------------|---------------------------------|---------------------------------|
A|-0---0---0---0---0---0---0---0---|---------------------------------|---------------------------------|
E|---------------------------------|-0---0---0---0---0---0---3---3---|-3---3---2---0---3---3---3---3---|
B|---------------------------------|---------------------------------|---------------------------------|


D|---------------------------------|---------------------------------|---------------------------------|
A|-------------------------0---0---|-0---0---0---0---0---0---0---0---|---------------------------------|
E|---------------------------------|---------------------------------|-0---0---0---0---0---0---3---3---|
B|-0---0---0---0---0---0-----------|---------------------------------|---------------------------------|

                                 [Pre-Verse]
D|------------------------------|---------------------------------|---------------------------------|
A|------------------------------|---------------------------------|---------------------------------|
E|-3---3---2---0---3---3///7----|---------------------------------|---------------------------------|
B|------------------------------|-0---0---0---0---0---1---0---0---|-0---0---0---0---0---1---0---0---|


D|---------------------------------|---------------------------------|---------------------------------|
A|---------------------------------|---------------------------------|---------------------------------|
E|---------------------------------|---------------------------------|---------------------------------|
B|-0---0---0---0---0---1---0---0---|-----0---0---0---0---1---1---0---|-0---0---0---0---0---1---0---0---|


D|---------------------------------|---------------------------------|---------------------------------|
A|---------------------------------|---------------------------------|---------------------------------|
E|---------------------------------|-----------------------------7---|-----7---7---7---7---8---8---7---|
B|-0---0---0---0---0---1---0---0---|-0---0---0---0---0---1---0-------|---------------------------------|

  [Verse 2]
D|---------------------------------|---------------------------------|---------------------------------|
A|---------------------------------|---------------------------------|---------------------------------|
E|---------------------------------|---------------------------------|---------------------------------|
B|-0---0---0---0---0---1---0---0---|-0---0---0---0---0---1---0---0---|-0---0---0---0---0---1---0---0---|


D|---------------------------------|---------------------------------|---------------------------------|
A|---------------------------------|---------------------------------|---------------------------------|
E|---------------------------------|---------------------------------|---------------------------------|
B|-----0---0---0---0---1---1---0---|-0---0---0---0---0---1---0---0---|-0---0---0---0---0---1---0---0---|


D|---------------------------------|------------------------------|---------------------------------|
A|---------------------------------|------------------------------|---------------------------------|
E|---------------------------------|------------------------------|---------------------------------|
B|-0---0---0---0---0---1---0---0---|-12--0---0---12--0---0---15\\\|\0---0---0---0---0---1---0---0---|


D|---------------------------------|---------------------------------|---------------------------------|
A|---------------------------------|---------------------------------|---------------------------------|
E|---------------------------------|---------------------------------|---------------------------------|
B|-0---0---0---0---0---1---0---0---|-0---0---0---0---0---1---0---0---|-----0---0---0---0---1---1---0---|


D|------------------------------|------------------------------|---------------------------------|
A|------------------------------|------------------------------|---------------------------------|
E|------------------------------|------------------------------|---------------------------------|
B|-0---0---0---0---0---1---0----|-----0---0---0---0---1---0----|-0---0---0---0---0---1---0---0---|

                                 [Chorus 2]
D|------------------------------|---------------------------------|---------------------------------|
A|------------------------------|-------------------------0---0---|-0---0---0---0---0---0---0---0---|
E|------------------------------|---------------------------------|---------------------------------|
B|----------------------///7----|-0---0---0---0---0---0-----------|---------------------------------|


D|---------------------------------|---------------------------------|---------------------------------|
A|---------------------------------|---------------------------------|-------------------------0---0---|
E|-0---0---0---0---0---0---3---3---|-3---3---2---0---3---3---3---3---|---------------------------------|
B|---------------------------------|---------------------------------|-0---0---0---0---0---0-----------|


D|---------------------------------|---------------------------------|-----------------2---0---0---2---|
A|-0---0---0---0---0---0---0---0---|---------------------------------|---------------------------------|
E|---------------------------------|-0---0---0---0---0---0---3---3---|-3---3---2---0-------------------|
B|---------------------------------|---------------------------------|---------------------------------|


D|---------------------------------|---------------------------------|---------------------------------|
A|-2---2---2---2---2---2---0---0---|-0---0---0---0---0---0---0---0---|---------------------------------|
E|---------------------------------|---------------------------------|-0---0---0---0---0---0---3---3---|
B|---------------------------------|---------------------------------|---------------------------------|


D|---------------------------------|---------------------------------|---------------------------------|
A|---------------------------------|-------------------------0---0---|-0---0---0---0---0---0---0---0---|
E|-3---3---2---0---3---3---3---3---|---------------------------------|---------------------------------|
B|---------------------------------|-0---0---0---0---0---0-----------|---------------------------------|

                                                                   [Post-Chorus 1]
D|---------------------------------|------------------------------|----------------------------------|
A|---------------------------------|------------------------------|----------------------------------|
E|-0---0---0---0---0---0---3---3---|-3---3---2---0---3---3///7----|----------------------------------|
B|---------------------------------|------------------------------|-0---0--0--0---1----0---0--0------|


D|----------------------------------|--------------------------------|
A|----------------------------------|--------------------------------|
E|----------------------------------|--------------------------------|
B|-0---0--0--0---1----0---0--0------|-0---0--0--0---1----0---0--0----|


D|-----------------------------------------|----------------------------------|
A|-----------------------------------------|----------------------------------|
E|-----------------------------------------|----------------------------------|
B|-3---3---3--3--3--3--1---1---1--1--1--1--|-0---0--0--0---1----0---0--0------|


D|----------------------------------|--------------------------------|
A|----------------------------------|--------------------------------|
E|----------------------------------|--------------------------------|
B|-0---0--0--0---1----0---0--0------|-0---0--0--0---1----0---0--0----|

                                            [Solo]
D|-----------------------------------------|---------------------------------|
A|-----------------------------------------|---------------------------------|
E|-----------------------------------------|---------------------------------|
B|-3---3---3--3--3--3--1---1---1--1--1--1--|-0---0---0---0---0---1---0---0---|


D|---------------------------------|---------------------------------|
A|---------------------------------|---------------------------------|
E|---------------------------------|---------------------------------|
B|-0---0---0---0---0---1---0---0---|-0---0---0---0---0---1---0---0---|


D|---------------------------------|---------------------------------|
A|---------------------------------|---------------------------------|
E|---------------------------------|---------------------------------|
B|-----0---0---0---0---1---1---0---|-0---0---0---0---0---1---0---0---|


D|---------------------------------|---------------------------------|---------------------------------|
A|---------------------------------|---------------------------------|---------------------------------|
E|---------------------------------|---------------------------------|---------------------------------|
B|-0---0---0---0---0---1---0---0---|-0---0---0---0---0---1---0---0---|-----0---0---0---0---1---1---0---|


D|------------------------------|------------------------------|------------------------------|--------|
A|------------------------------|------------------------------|------------------------------|--------|
E|------------------------------|------------------------------|------------------------------|--------|
B|-0---0---0---0---0---1---0----|-0---0---0---0---0---1---0----|-0---0---0---0---0---1---0----|--------|

  [Chorus 3]
D|---------------------------------|---------------------------------|---------------------------------|
A|-------------------------0---0---|-0---0---0---0---0---0---0---0---|---------------------------------|
E|---------------------------------|---------------------------------|-0---0---0---0---0---0---3---3---|
B|-0---0---0---0---0---0-----------|---------------------------------|---------------------------------|


D|---------------------------------|---------------------------------|---------------------------------|
A|---------------------------------|-------------------------0---0---|-0---0---0---0---0---0---0---0---|
E|-3---3---2---0---3---3---3---3---|---------------------------------|---------------------------------|
B|---------------------------------|-0---0---0---0---0---0-----------|---------------------------------|


D|---------------------------------|-----------------2---0---0---2---|---------------------------------|
A|---------------------------------|---------------------------------|-2---2---2---2---2---2---0---0---|
E|-0---0---0---0---0---0---3---3---|-3---3---2---0-------------------|---------------------------------|
B|---------------------------------|---------------------------------|---------------------------------|


D|---------------------------------|---------------------------------|---------------------------------|
A|-0---0---0---0---0---0---0---0---|---------------------------------|---------------------------------|
E|---------------------------------|-0---0---0---0---0---0---3---3---|-3---3---2---0---3---3---3---3---|
B|---------------------------------|---------------------------------|---------------------------------|


D|---------------------------------|---------------------------------|---------------------------------|
A|-------------------------0---0---|-0---0---0---0---0---0---0---0---|---------------------------------|
E|---------------------------------|---------------------------------|-0---0---0---0---0---0---3---3---|
B|-0---0---0---0---0---0-----------|---------------------------------|---------------------------------|


D|------------------------------|---------------------------------|---------------------------------|
A|------------------------------|-------------------------0---0---|-0---0---0---0---0---0---0---0---|
E|-3---3---2---0---3---3///7----|---------------------------------|---------------------------------|
B|------------------------------|-0---0---0---0---0---0-----------|---------------------------------|

                                                                   [Outro]
D|---------------------------------|------------------------------|----------------------------------|
A|---------------------------------|------------------------------|----------------------------------|
E|-0---0---0---0---0---0---3---3---|-3---3---2---0---3---3///7----|----------------------------------|
B|---------------------------------|------------------------------|-0---0--0--0---1----0---0--0------|


D|----------------------------------|--------------------------------|
A|----------------------------------|--------------------------------|
E|----------------------------------|--------------------------------|
B|-0---0--0--0---1----0---0--0------|-0---0--0--0---1----0---0--0----|


D|-----------------------------------------|----------------------------------|
A|-----------------------------------------|----------------------------------|
E|-----------------------------------------|----------------------------------|
B|-3---3---3--3--3--3--1---1---1--1--1--1--|-0---0--0--0---1----0---0--0------|


D|----------------------------------|--------------------------------|-----------------------------------|
A|----------------------------------|--------------------------------|-----------------------------------|
E|----------------------------------|--------------------------------|-----------------------------------|
B|-0---0--0--0---1----0---0--0------|-0---0--0--0---1----0---0--0----|-3---3---3--3--3--3--1----1----1---|


***********************************
| /   Slide up
| \   Slide down
| X   Dead note
***********************************

            
            
Suggest correction
Creating personal tab
Creating personal tab
You can edit any tab online and save it as your Personal.

You can edit, replace or remove any tab part or add personal notes – all changes will be seen only by you.

Personal tabs can be accessed anytime from any device, even offline.
Learn more »
Give kudos to tab author, rate the tab!
1 2 3 4 5
comments
print report bad tab
guest
You may want to rate the tab now too:
select rating
Wanna post a correction for this tab? Suggest correction