Oops, an error
Loading. Please wait.
We have Chord Pro version of 100 Years.
It's the closest thing you can get to the original song and it has interactive parts. Check out the tab »
×
3,070 views 1 this week
3 commentsread comments
1 2 3 4 5
1 last vote to show rating
add to favorites
×
Save as Personal and add changes to this tab that will be seen only by you. Learn more ›
×
You can save this tab as Personal to edit and correct it or add notes. All changes will be seen only by you. Learn more »
launch autoscroll
font size
0
reset
how to read this tab
guitar tuner
backing track
0:00
0:00
edit
Autoscroll
slow
fast
+/-
esc
set tempo
stop
Author
Difficulty
Gtr I (E A D G B E) - 'Lead Piano'
Gtr I (E A D G B E) - 'Bass Piano'

 Intro
  Q=120
 4/4
  Gtr I
|---------|------15-15-(15)------------|
|---------|----------------------------|
|---------|---12------------16-(16)-17-|
|---------|-------------------------17-|
|---------|----------------------------|
|---------|----------------------------|
|
| Gtr II
|---------|----------------------------|
|---------|----------------------------|
|---------|-0--------0--(0)------0-----|
|---------|----------------------------|
|---------|----------------------------|
|---------|----------------------------|


|------------------------------|---------15-15-(15)-------------|
|-------------------15-(15)----|--------------------------------|
|-(17)----17-16-17-------------|--------------------16-(16)-17--|
|-(17)-17-------------------17-|-(17)-17--------------------17--|
|------------------------------|--------------------------------|
|------------------------------|--------------------------------|
|
|------------------------------|--------------------------------|
|---1---------1-(1)------1-----|--------------------------------|
|------------------------------|---2---------2--(2)------2------|
|------------------------------|--------------------------------|
|------------------------------|--------------------------------|
|------------------------------|--------------------------------|


|----------------------------|------15----15-(15)------------|
|-------------------15-13-12-|-(12)--------------------------|
|-(17)----17-16-17--------12-|-(12)---------------19-(19)-16-|
|-(17)-17--------------------|---------17---------17-(17)-17-|
|----------------------------|-------------------------------|
|----------------------------|-------------------------------|
|
|----------------------------|-------------------------------|
|---3---------3-(3)-----3----|-------------------------------|
|----------------------------|---4---------4--(4)------4-----|
|----------------------------|-------------------------------|
|----------------------------|-------------------------------|
|----------------------------|-------------------------------|


|---------------------------|-------------------------------|
|---------------------15-17-|-(17)--------------------------|
|-(16)----16---16--17-------|---------16-16-(16)-16-(16)-16-|
|-(17)-17------17--------17-|-(17)-17----17-(17)-17-(17)-17-|
|---------------------------|-------------------------------|
|---------------------------|-------------------------------|
|
|---------------------------|-------------------------------|
|---5--------5-(5)-----5----|-------------------------------|
|---------------------------|-------------------------------|
|---------------------------|---7---------7--(7)------7-----|
|---------------------------|-------------------------------|
|---------------------------|-------------------------------|


|-------------------------------|------15-(15)-15-(15)------------|
|---------12-15-(15)-15-(15)----|---------------------------------|
|-(16)-14----12-(12)-11-(11)-12-|-(12)-----------------16-(16)-17-|
|-(17)--------------------------|----------------------17-(17)-17-|
|-------------------------------|---------------------------------|
|-------------------------------|---------------------------------|
|
|-------------------------------|---------------------------------|
|-------------------------------|---------------------------------|
|---7-------------7-------7-----|---------------------------------|
|-------------------------------|---5-----------5--(5)------5-----|
|-------------------------------|---------------------------------|
|-------------------------------|---------------------------------|


|------------------------------|---------15-15-(15)------------|
|------------------------------|-------------------------------|
|-(17)----17-16-17--19-(19)----|--------------------16-(16)-17-|
|-(17)-17-----------17-(17)-17-|-(17)-17------------17-(17)-17-|
|------------------------------|-------------------------------|
|------------------------------|-------------------------------|
|
|------------------------------|-------------------------------|
|------------------------------|-------------------------------|
|---5---------5-(5)------5-----|-------------------------------|
|------------------------------|---7---------7--(7)------7-----|
|------------------------------|-------------------------------|
|------------------------------|-------------------------------|


|----------------------------|------15----15-(15)------------|
|-------------------15-13-12-|-(12)--------------------------|
|-(17)----17-16-17--------12-|-(12)---------------19-(19)-16-|
|-(17)-17--------------------|---------17---------17-(17)-17-|
|----------------------------|-------------------------------|
|----------------------------|-------------------------------|
|
|----------------------------|-------------------------------|
|----------------------------|-------------------------------|
|---7---------7-(7)-----7----|-------------------------------|
|----------------------------|---9---------9--(9)------9-----|
|----------------------------|-------------------------------|
|----------------------------|-------------------------------|


|---------------------------|------------------------------|
|---------------------15-17-|-(17)-------------------------|
|-(16)----16---16--17-------|---------16-16-16--16-(16)-16-|
|-(17)-17------17--------17-|-(17)-17-------17--17-(17)-17-|
|---------------------------|------------------------------|
|---------------------------|------------------------------|
|
|---------------------------|------------------------------|
|---------------------------|------------------------------|
|---9--------9-(9)-----9----|------------------------------|
|---------------------------|---7---------7-(7)------7-----|
|---------------------------|------------------------------|
|---------------------------|------------------------------|


|-------------------------------|------15----15-(15)------------|
|---------12-15-(15)-15-(15)----|-------------------------------|
|-(16)-14----12-(12)-11-(11)-12-|-(12)---------------16-(16)-17-|
|-(17)--------------------------|---------17---------17-(17)-17-|
|-------------------------------|-------------------------------|
|-------------------------------|-------------------------------|
|
|-------------------------------|-------------------------------|
|-------------------------------|-------------------------------|
|---7---------7--(7)------7-----|-------------------------------|
|-------------------------------|---5---------5--(5)------5-----|
|-------------------------------|-------------------------------|
|-------------------------------|---3---------------------------|


|------------------------------|---------15-15-(15)------------|
|------------------------------|-------------------------------|
|-(17)----17-16-17--19-(19)----|--------------------16-(16)-17-|
|-(17)-17-----------17-(17)-17-|-(17)-17------------17-(17)-17-|
|------------------------------|-------------------------------|
|------------------------------|-------------------------------|
|
|------------------------------|-------------------------------|
|------------------------------|-------------------------------|
|---5---------5-(5)------5-----|-------------------------------|
|------------------------------|---7---------7--(7)------7-----|
|------------------------------|-------------------------------|
|---8--------------------------|---5---------------------------|


|----------------------------|------15----15-(15)------------|
|----------------------------|-------------------------------|
|-(17)----17-16-17--19-17-16-|-(16)---------------19-(19)-16-|
|-(17)-17-----------17-17-17-|-(17)----17---------17-(17)-17-|
|----------------------------|-------------------------------|
|----------------------------|-------------------------------|
|
|----------------------------|-------------------------------|
|----------------------------|-------------------------------|
|---7---------7-(7)-----7----|-------------------------------|
|---0------------------------|---9---------9--(9)------9-----|
|----------------------------|-------------------------------|
|----------------------------|---7---------------------------|


|---------------------------|-------------------------------|
|------------------------17-|-(17)--------------------------|
|-(16)----16---16--17-19----|---------16-16-(16)-16-(16)-16-|
|-(17)-17------17-----17-17-|-(17)-17----17-(17)-17-(17)-17-|
|---------------------------|-------------------------------|
|---------------------------|-------------------------------|
|
|---------------------------|-------------------------------|
|---------------------------|-------------------------------|
|---9--------9-(9)-----9----|-------------------------------|
|---------------------------|---7---------------------------|
|---------------------------|---0-------------7-------------|
|--12-----------------------|-------------------------------|


                                 Pre-Verse
|-------------------------------|-------------------------------|
|---------12-15-(15)------------|------------12-(12)-10-(10)-10-|
|-(16)-14----12-(12)-11-(11)-12-|-(12)----12-14-(14)-12-(12)--9-|
|-(17)--------------------------|------12----12-(12)-12-(12)----|
|-------------------------------|-------------------------------|
|-------------------------------|-------------------------------|
|
|-------------------------------|-------------------------------|
|-------------------------------|-------------------------------|
|---7---------------------------|-------------------------------|
|---5---------------------4-----|-------------5--(5)------5-----|
|-------------------------------|----------5--------------------|
|-------------------------------|---3---------------------------|


|-----------5-(5)--3-3-|-(3)---3--7--(7)---5-5-|
|-(10)-10---5-(5)----3-|-(3)-3---10-(10)-----5-|
|--(9)--9-7-5-(5)----4-|-(4)------7--(7)-7-----|
|----------------------|-----------------------|
|----------------------|-----------------------|
|----------------------|-----------------------|
|
|----------------------|-----------------------|
|----------------------|-----------------------|
|----------------------|-----------------------|
|----------------------|----------5--(5)---5---|
|---5-------3-(3)--3---|-------5---------------|
|----------------------|--3--------------------|


|-(5)-5---5-(5)-------3-|-(3)---3--7--(7)-5-(5)-5-|
|-(5)-5-3-5-(5)-8-(8)-3-|-(3)-3---10-(10)-8-(8)-5-|
|---------5-(5)-5-(5)-4-|-(4)------7--(7)-7-(7)---|
|-----------------------|-------------------------|
|-----------------------|-------------------------|
|-----------------------|-------------------------|
|
|-----------------------|-------------------------|
|-----------------------|-------------------------|
|-----------------------|-------------------------|
|-----------------------|----------5--(5)----5----|
|--5------3-(3)----3----|-------5-----------------|
|-----------------------|--3----------------------|


|-(5)-----5--7---7-10-12-|------------------|
|-(5)-5-3-5------8-------|-12----12-10-8--8-|
|---------5------9-------|-12----11-------9-|
|---------------10-------|-14----12------10-|
|------------------------|-14------------10-|
|------------------------|------------------|
|
|------------------------|--------0-------0-|
|------------------------|------------------|
|------------------------|------------------|
|------------------------|--2---------------|
|--5------3-(3)----------|------------------|
|------------------------|--0---------------|


|---------------|-5--5-5-(5)-7-(7)-5-|-(5)-3-3----3-3-|-3-----3-(3)-------|
|--(8)----------|--------------------|----------------|-3-3---3-(3)-------|
|--(9)------7-7-|--------------------|----------------|-0-----------------|
|-(10)----------|--------------------|----------------|-----5-------------|
|-(10)----------|--------------------|----------------|-------------------|
|---------------|--------------------|----------------|-------------------|
|
|---0-----------|-0------------------|--0-------------|-------------------|
|---------------|--------------------|----------------|-------------------|
|---------------|--------------------|----------------|-------------------|
|---------------|--------------------|----------------|-------5-(5)-5---5-|
|---------------|--------------------|----------------|-2-----3-(3)---3---|
|---------------|--------------------|----------------|-------------------|


|---3---3-(3)-2-(2)-2-|-2---------------------|
|---3---3-(3)-3-(3)-3-|-3-3----5--(5)---------|
|-------0-(0)-0-(0)-0-|-0------7--(7)---------|
|-----5---------------|-----5-----------------|
|---------------------|-----------------------|
|---------------------|-----------------------|
|
|---------------------|-----------------------|
|---------------------|-----------------------|
|---------------------|-----------------------|
|---------------------|-----------------------|
|-7-----5-(5)----5----|-------10-(10)-10---10-|
|-0-------------------|-7------8--(8)----8----|


                       Verse
|---3---3-(3)-2-(2)-3-|-(3)-3---3-(3)---------|
|---3---3-(3)-3-(3)---|-----------------------|
|---0---0-(0)---------|-------4-------4-(4)-5-|
|-----5---------------|---------------5-(5)-5-|
|---------------------|-----------------------|
|---------------------|-----------------------|
|
|---------------------|-----------------------|
|---------------------|-----------------------|
|---------------------|-----------------------|
|---------------------|-----------------------|
|-7-----5-(5)---------|-----------------------|
|-0-------------------|--3------3-(3)-------3-|


|-----------------------|-------3-3-(3)---------|
|-----------------------|-----------------------|
|-(5)---5-4--5--7-(7)---|---------------4-(4)-5-|
|-(5)-5------5--5-(5)-5-|-(5)-5---------5-(5)-5-|
|-----------------------|-----------------------|
|-----------------------|-----------------------|
|
|-----------------------|-----------------------|
|-----------------------|-----------------------|
|-----------------------|-----------------------|
|-----------------------|-----------------------|
|--3------3-(3)----3----|--0------0-(0)----0----|
|-----------------------|-----------------------|


|---------------------|---------------------|
|---------------3-1-0-|-(0)---0-0--0--1-3-5-|
|-(5)---5-4--5------0-|-(0)-0------0------0-|
|-(5)-5---------------|---------------------|
|---------------------|---------------------|
|---------------------|---------------------|
|
|---------------------|---------------------|
|---------------------|---------------------|
|---------------------|---------------------|
|---------------------|---------------------|
|--5------5-(5)---5---|---------------------|
|---------------------|--7------7-(7)---7---|


|-----------------------|--------------------|
|-(5)-------------------|--------------------|
|-(0)---4-------4-(4)---|-5--5-5-(5)-4-(4)-2-|
|-----5-5----5--------5-|-5----5-(5)-5-(5)-5-|
|-----------------------|--------------------|
|-----------------------|--------------------|
|
|-----------------------|--------------------|
|-----------------------|--------------------|
|-----------------------|--------------------|
|-----------------------|--------------------|
|--7------7-(7)----7----|--------------------|
|-----------------------|-5----5-(5)-------5-|


|-----------------------|-----3---3-(3)---------|
|---------3-(3)-3-(3)---|-----------------------|
|-(2)-0-2-0-(0)---------|---------------4-(4)-5-|
|-(5)-----------4-(4)-5-|-(5)---5-------5-(5)-5-|
|-----------------------|-----------------------|
|-----------------------|-----------------------|
|
|-----------------------|-----------------------|
|-----------------------|-----------------------|
|-----------------------|-----------------------|
|-----------------------|-----------------------|
|--5------5-(5)----5----|-----------------------|
|-----------------------|--3------3-(3)-------3-|


|----------------------|-----3-3-(3)---------|
|---------------3-(3)--|---------------------|
|-(5)---5-4--5---------|-------------4-(4)-5-|
|-(5)-5----------------|---5---------5-(5)-5-|
|----------------------|---------------------|
|----------------------|---------------------|
|
|----------------------|---------------------|
|----------------------|---------------------|
|----------------------|---------------------|
|--2-------------------|---------------------|
|--3------3-(3)----2---|-0-----0-(0)----0----|
|----------------------|---------------------|


|---------------------|-----3---3-(3)---------|
|---------------------|---------3-(3)-3-(3)---|
|-(5)---5-4--5--7-5-4-|-(4)-----------0-(0)-4-|
|-(5)-5---------7---5-|-(5)---5-------------5-|
|---------------------|-----------------------|
|---------------------|-----------------------|
|
|---------------------|-----------------------|
|---------------------|-----------------------|
|---------------------|-----------------------|
|--0------0-(0)-------|-----------------------|
|-----------------3---|--2------2-(2)----2----|
|---------------------|-----------------------|


|---------------------|-------------------------|
|-----------------3-5-|-(5)---------------------|
|-(4)---4----4--5---0-|-(0)-------4-(4)-4-(4)-4-|
|-(5)-5------5--------|-----5-(5)-5-(5)-5-(5)-5-|
|---------------------|-------------------------|
|---------------------|-------------------------|
|
|---------------------|-------------------------|
|---------------------|-------------------------|
|---------------------|-------------------------|
|--2------2-(2)---2---|-------------------------|
|---------------------|--0--------0-(0)----0----|
|---------------------|-------------------------|


                         Pre-Chorus
|-----------------------|-------3--7--(7)-5-(5)-5-|
|---------3-(3)-3-(3)-3-|-(3)-3---10-(10)-8-(8)-5-|
|-(4)-2-4-0-(0)-------0-|-(0)------7--(7)-7-(7)---|
|-(5)-----------4-(4)---|-------------------------|
|-----------------------|-------------------------|
|-----------------------|-------------------------|
|
|-----------------------|-------------------------|
|-----------------------|-------------------------|
|-----------------------|-------------------------|
|--0---------0-----0----|----------5--(5)----5----|
|-----------------------|-------5-----------------|
|-----------------------|--3----------------------|


|-(5)-5---5-(5)--3-3-|-(3)---3--7--(7)-5-5-5-|
|-(5)-5-3-5-(5)----3-|-(3)-3---10-(10)-8---5-|
|---------5-(5)----4-|-(4)------7--(7)-7-----|
|--------------------|-----------------------|
|--------------------|-----------------------|
|--------------------|-----------------------|
|
|--------------------|-----------------------|
|--------------------|-----------------------|
|--------------------|-----------------------|
|--------------------|----------5--(5)---5---|
|--5------3-(3)--3---|-------5---------------|
|--------------------|--3--------------------|


|-(5)-5---5-(5)-3-(3)-3-|-(3)-2-(2)----------2-|
|-(5)-5-3-5-(5)-------0-|-(0)-------3-(3)----3-|
|---------5-(5)---------|-----------0-(0)--4-4-|
|-----------------------|----------------------|
|-----------------------|----------------------|
|-----------------------|----------------------|
|
|-----------------------|----------------------|
|-----------------------|----------------------|
|-----------------------|----------------------|
|-----------------------|--2--------2-(2)--2---|
|--5------3-(3)----3----|----------------------|
|-----------------------|----------------------|


|-(2)-------2-----------0-|-(0)---7-7-(7)-5-(5)-5-|
|-(3)-------3-----------1-|-(1)-3-8-8-(8)-8-(8)-8-|
|-(4)-4-(4)-4--2--0-(0)-0-|-(0)---7-7-(7)-7-(7)-7-|
|-------------------------|-----------------------|
|-------------------------|-----------------------|
|-------------------------|-----------------------|
|
|-------------------------|-----------------------|
|-------------------------|-----------------------|
|-------------------------|-----------------------|
|--0--------0-(0)----0----|-----------------------|
|-------------------------|--3------3-(3)----3----|
|-------------------------|-----------------------|


|-(5)-3---3-(3)-2-(2)-3-|-(3)---3--7--(7)-5-(5)-5-|
|-(8)-3-3-3-(3)-3-(3)-3-|-(3)-3---10-(10)-8-(8)-7-|
|-(7)-----------------4-|-(4)------7--(7)-7-(7)---|
|-----------------------|-------------------------|
|-----------------------|-------------------------|
|-----------------------|-------------------------|
|
|-----------------------|-------------------------|
|-----------------------|-------------------------|
|-----------------------|-------------------------|
|-----------------------|----------5--(5)----5----|
|--3------3-(3)----0----|-------5-----------------|
|-----------------------|--3----------------------|


|-(5)-5---7-(7)------|----------7--(7)-5-(5)-5-|
|-(7)-5-3-8-(8)--8-8-|-(8)---3-10-(10)-8-(8)-5-|
|---------7-(7)----7-|-(7)------7--(7)-7-(7)---|
|------------------9-|-(9)-5-------------------|
|--------------------|-------------------------|
|--------------------|-------------------------|
|
|--------------------|-------------------------|
|--------------------|-------------------------|
|--------------------|-------------------------|
|--------------------|----------5--(5)----5----|
|--5------3-(3)--3---|-------------------------|
|--------------------|--3----------------------|


|-(5)-5---5--7--7-10-12-|------------------|
|-(5)-3-3-5-----8-------|-12----12-10-8--8-|
|---------5-----9-------|-12----14-------9-|
|-----------------------|-12----12------12-|
|-----------------------|---------------10-|
|-----------------------|------------------|
|
|-----------------------|--------0-------0-|
|-----------------------|------------------|
|-----------------------|------------------|
|-----------------------|--2---------------|
|--5------3-(3)---------|------------------|
|-----------------------|--0---------------|


|---------------|-5--5-5-(5)-7-(7)-5-|-(5)-3-3----3-3-|-(3)---3---3-3---5-|
|--(8)----------|--------------------|----------------|-----3---3-----3---|
|--(9)------7-7-|--------------------|----------------|-----2---2-----2---|
|-(12)----------|--------------------|----------------|-----5---5-----5---|
|-(10)----------|--------------------|----------------|-------------------|
|---------------|--------------------|----------------|-------------------|
|
|---0-----------|-0------------------|--0-------------|--0----------------|
|---------------|--------------------|----------------|-------------------|
|---------------|--------------------|----------------|-------------------|
|---------------|--------------------|----------------|-------------------|
|---------------|--------------------|----------------|---------------3---|
|---------------|--------------------|----------------|-------3-----------|


|-(5)----5-5-5-5-(5)-7-|-(7)-7-7-7--7--7-7-8-|
|------7---------------|-----8---8-----8-----|
|------7-----7---------|-----7---7-----7-----|
|------7-----7---------|---------------------|
|-----10---------------|---------------------|
|----------------------|---------------------|
|
|--0-------------------|---------------------|
|----------------------|---------------------|
|----------------------|---------------------|
|----------------------|---------------------|
|--------0--------5----|---------------7-----|
|----------------------|--0----7---(7)---0---|


|-(8)---8-8-8-7-5-3-|-(3)-3-3-3-3-3---5-|
|-----8-----8-------|-----3---3-----3---|
|-----9-----9-------|-----0---0-----0---|
|-------------------|-------------------|
|-------------------|-------------------|
|-------------------|-------------------|
|
|-------------------|--0------------0---|
|-------------------|-------------------|
|-------------------|-------------------|
|---------------3---|-------------------|
|-------3-----------|-------3-----------|
|--1----------------|-------------------|


                      Chorus
|-(5)-------5-5------|-------15-15-(15)------------|
|-----7-(7)------7-8-|-(8)-8-----------------------|
|-----7-(7)----------|------------------16-(16)-17-|
|-----7-(7)----------|-----------------------------|
|--------------------|-----------------------------|
|--------------------|-----------------------------|
|
|--0-----------------|-----------------------------|
|--------------------|-----------------------------|
|--------------------|-----------------------------|
|--------------------|--5--------5--(5)------5-----|
|--------------------|-----------------------------|
|--------------------|--3--------------------------|


|------------------------------|---------15-15----------------|
|-------------------15-(15)----|------------------------------|
|-(17)----17-16-17-------------|-------------------16-(16)-17-|
|------17-------------------17-|-(17)-17-------17--17-(17)-17-|
|------------------------------|------------------------------|
|------------------------------|------------------------------|
|
|------------------------------|------------------------------|
|------------------------------|------------------------------|
|---5---------5-(5)------5-----|------------------------------|
|------------------------------|---7---------7-(7)------7-----|
|------------------------------|------------------------------|
|------------------------------|------------------------------|


|------------------------------|------15-(15)-15-(15)------------|
|------------------------------|---------------------------------|
|-(17)----17-16-17--19-(19)----|----------------------16-(16)-17-|
|-(17)-17-----------17-(17)-17-|-(17)-----------------17-(17)-17-|
|------------------------------|---------------------------------|
|------------------------------|---------------------------------|
|
|------------------------------|---------------------------------|
|------------------------------|---------------------------------|
|---7---------7-(7)------7-----|---------------------------------|
|------------------------------|---5-----------5--(5)------5-----|
|------------------------------|---------------------------------|
|------------------------------|---------------------------------|


|------------------------------|---------15-15-(15)------------|
|------------------------------|-------------------------------|
|-(17)----17-16-17--19-(19)----|--------------------16-(16)-17-|
|-(17)-17-----------17-(17)-17-|-(17)-17------------17-(17)-17-|
|------------------------------|-------------------------------|
|------------------------------|-------------------------------|
|
|------------------------------|-------------------------------|
|------------------------------|-------------------------------|
|---5---------5-(5)------5-----|-------------------------------|
|------------------------------|---7---------7--(7)------7-----|
|------------------------------|-------------------------------|
|------------------------------|-------------------------------|


|----------------------------|------15----15-(15)------------|
|-------------------15-13-12-|-(12)--------------------------|
|-(17)----17-16-17--------12-|-(12)---------------19-(19)-16-|
|-(17)-17--------------------|---------17---------17-(17)-17-|
|----------------------------|-------------------------------|
|----------------------------|-------------------------------|
|
|----------------------------|-------------------------------|
|----------------------------|-------------------------------|
|---7---------7-(7)-----7----|-------------------------------|
|----------------------------|---9---------9--(9)------9-----|
|----------------------------|-------------------------------|
|----------------------------|-------------------------------|


|---------------------------|------------------------------|
|---------------------15-17-|-(17)-------------------------|
|-(16)----16---16--17-------|---------16-16-16--16-(16)-16-|
|-(17)-17-17---17--------17-|-(17)-17-------17--17-(17)-17-|
|---------------------------|------------------------------|
|---------------------------|------------------------------|
|
|---------------------------|------------------------------|
|---------------------------|------------------------------|
|---9--------9-(9)-----9----|------------------------------|
|---------------------------|---7---------7-(7)------7-----|
|---------------------------|------------------------------|
|---------------------------|------------------------------|


                                 Breakdown
|-------------------------------|-------------------------------|
|---------12-15-(15)-15-(15)----|------------12-(12)-10-(10)-10-|
|-(16)-14----12-(12)-11-(11)-12-|-(12)----12-14-(14)-12-(12)--9-|
|-(17)--------------------------|------12----12-(12)-12-(12)----|
|-------------------------------|-------------------------------|
|-------------------------------|-------------------------------|
|
|-------------------------------|-------------------------------|
|-------------------------------|-------------------------------|
|---7---------7--(7)------7-----|-------------------------------|
|-------------------------------|-------------5--(5)------5-----|
|-------------------------------|----------5--------------------|
|-------------------------------|---3---------------------------|


|-----------5-(5)--3-3-|-(3)---3--7--(7)-5-(5)-5-|
|-(10)-10---5-(5)----3-|-(3)-3---10-(10)-8-(8)-5-|
|--(9)--9-7-5-(5)----4-|-(4)------7--(7)-7-(7)---|
|----------------------|-------------------------|
|----------------------|-------------------------|
|----------------------|-------------------------|
|
|----------------------|-------------------------|
|----------------------|-------------------------|
|----------------------|-------------------------|
|----------------------|----------5--(5)----5----|
|---5-------3-(3)------|-------5-----------------|
|----------------------|--3----------------------|


|-(5)-5---5-(5)-----3-|---3----7--(7)-5-5-5-|
|-(5)-5-3-5-(5)-8-5-3-|-3-0-3-10-(10)-8---5-|
|---------5-(5)-5---4-|--------7--(7)-7-----|
|---------------------|---------------------|
|---------------------|---------------------|
|---------------------|---------------------|
|
|---------------------|---------------------|
|---------------------|---------------------|
|---------------------|---------------------|
|---------------------|-----5-----(5)-------|
|--5------3-(3)-------|---5-----------------|
|---------------------|-3-------------------|


|-(5)-5---5-(5)-3-(3)-3-|---3----7--(7)-5-5-5-|
|-(5)-5-3-5-(5)-5-(5)-3-|-3---3-10-(10)-8---5-|
|---------5-(5)-5-(5)-4-|--------7--(7)-7-----|
|-----------------------|---------------------|
|-----------------------|---------------------|
|-----------------------|---------------------|
|
|-----------------------|---------------------|
|-----------------------|---------------------|
|-----------------------|---------------------|
|-----------------------|-----5-----(5)-------|
|--5------3-(3)---------|---5-----------------|
|-----------------------|-3-------------------|


|-(5)-7---5-(5)-3-(3)---|-2-3-(3)-5-(5)--2-2-|
|-(5)-5-3-5-(5)-5-(5)---|-3-------3-(3)--3-3-|
|---------5-(5)-5-(5)---|-2--------------0-2-|
|-----------------------|--------------------|
|-----------------------|--------------------|
|-----------------------|--------------------|
|
|-----------------------|--------------------|
|-----------------------|--------------------|
|-----------------------|--------------------|
|-----------------------|--------------------|
|--5------3--3--3--3--5-|--------------------|
|-----------------------|-3-------3-(3)------|


|-(2)-3-(3)-------2-(2)--|-2-3-(3)-5-(5)--2-2-|
|-(3)-3-(3)-3-(3)-3-(3)--|-3-3-(3)-3-(3)--3-3-|
|-(2)-2-(2)-0-(0)-2-(2)--|-0--------------2-2-|
|------------------------|--------------------|
|------------------------|--------------------|
|------------------------|--------------------|
|
|------------------------|--------------------|
|------------------------|--------------------|
|------------------------|--------------------|
|------------------------|--------------------|
|--5--------5-(5)--------|-7-------7-(7)------|
|------------------------|--------------------|


|-(2)-3-(3)--------------|-2-3-(3)-5-(5)--2-2-|
|-(3)-3-(3)-3-(3)-3-(3)--|-3-------3-(3)--3-3-|
|-(2)-0-(0)-0-(0)--------|-2-------2-(2)--2-2-|
|-----------------4-(4)--|--------------------|
|------------------------|--------------------|
|------------------------|--------------------|
|
|------------------------|--------------------|
|------------------------|--------------------|
|------------------------|--------------------|
|------------------------|--------------------|
|------------------------|--------------------|
|--8--------8-(8)-7--5---|-3-------3-(3)------|


|-(2)-3-(3)-3-(3)-------3-|-(3)---7-7-(7)-7-(7)-7-|
|-(3)-3-(3)-3-(3)-7-(7)-3-|-(3)-3-8-8-(8)-8-(8)-8-|
|-(2)-2-(2)-0-(0)-7-(7)-4-|-(4)---7-7-(7)-7-(7)-7-|
|-----------------4-(4)---|-----------------------|
|-------------------------|-----------------------|
|-------------------------|-----------------------|
|
|-------------------------|-----------------------|
|-------------------------|-----------------------|
|-------------------------|-----------------------|
|-------------------------|-----------------------|
|--5--------5-(5)---------|--7------7-(7)----7----|
|-------------------------|-----------------------|


|-(7)-5-(5)-5-(5)-3-(3)----|-5-7-(7)--7--(7)-5-(5)-5-|
|-(8)-8-(8)-8-(8)-3-(3)----|-3-------10-(10)-8-(8)-7-|
|-(7)-7-(7)-7-(7)----------|----------7--(7)-7-(7)---|
|--------------------------|-------------------------|
|--------------------------|-------------------------|
|--------------------------|-------------------------|
|
|--------------------------|-------------------------|
|--------------------------|-------------------------|
|--------------------------|-------------------------|
|--------------------------|----------5--(5)----5----|
|--------------------------|-------------------------|
|--8-----8--8-(8)----8--10-|-3-----------------------|


|-(5)-5---5-(5)--3-3-|-----3-7-(7)-5-5-5-|
|-(7)-5-3-5-(5)--0-0-|-5-3---8-(8)-------|
|---------7-(7)------|-------7-(7)-----5-|
|--------------------|-------------------|
|--------------------|-------------------|
|--------------------|-------------------|
|
|--------------------|-------------------|
|--------------------|-------------------|
|--------------------|-------------------|
|--------------------|-------------------|
|--5------5-(5)------|-7-----7-(7)---7---|
|--------------------|-------------------|


|-(5)-5-(5)-5-(5)-3-(3)-3-|-(3)-------7-(7)--------|
|-----------------0-(0)-0-|-(0)-3-(3)-3-(3)-3-(3)--|
|-(5)-5-(5)-5-(5)---------|-----------------4-(4)--|
|-------------------------|------------------------|
|-------------------------|------------------------|
|-------------------------|------------------------|
|
|-------------------------|------------------------|
|-------------------------|------------------------|
|-------------------------|------------------------|
|-------------------------|------------------------|
|-------------------------|------------------------|
|--8-----------8--7--5----|--3--------3-(3)--------|


|-7-5-(5)-5--7--7-10-12-|------------------|
|-3-------7-----7-------|-12----12-10-8--8-|
|---------------7-------|-12----11-------9-|
|-----------------------|-12----12------12-|
|-----------------------|---------------10-|
|-----------------------|------------------|
|
|-----------------------|--------0-------0-|
|-----------------------|------------------|
|-----------------------|------------------|
|-----------------------|------------------|
|-5-------5-(5)----5----|--7---------------|
|-----------------------|--0---------------|


|---------------|-5--5-5-(5)-7-(7)-5-|
|--(8)----------|--------------------|
|--(9)------7-7-|--------------------|
|-(12)----------|--------------------|
|-(10)----------|--------------------|
|---------------|--------------------|
|
|---0-----------|-0------------------|
|---------------|--------------------|
|---------------|--------------------|
|---------------|--------------------|
|---------------|--------------------|
|---------------|--------------------|


                  Outro
|-(5)-3-3----2-3-|-(3)-3-15-15-(15)------------|
|----------------|-----------------------------|
|----------------|------------------16-(16)-17-|
|----------------|--------------------------17-|
|----------------|-----------------------------|
|----------------|-----------------------------|
|
|--0-------------|-----------------------------|
|----------------|-----------------------------|
|----------------|-----------------------------|
|----------------|--5--------5--(5)------5-----|
|----------------|-----------------------------|
|----------------|-----------------------------|


|------------------------------|
|-------------------15-(15)----|
|-(17)----17-16-17-------------|
|-(17)-17-------------------17-|
|------------------------------|
|------------------------------|
|
|------------------------------|
|------------------------------|
|---5---------5-(5)------5-----|
|------------------------------|
|------------------------------|
|------------------------------|


                                  Q=107Q=9Q=8Q=8Q=7Q=63
|---------15-15-(15)------------|---------------------------*|
|-------------------------------|------------------15-(15)--*|
|--------------------16-(16)-17-|-(17)----17-16-17----------*|
|-(17)-17--------------------17-|-(17)-17-------------------*|
|-------------------------------|---------------------------*|
|-------------------------------|---------------------------*|
|
|-------------------------------|---------------------------*|
|-------------------------------|---------------------------*|
|-------------------------------|---7-----------------------*|
|---7---------7--(7)------7-----|---------------------------*|
|-------------------------------|---------------------------*|
|-------------------------------|---------------------------*|


Tablature Legend
----------------
 h   - hammer-on
 p   - pull-off
 b   - bend
 pb  - pre-bend
 r   - bend release (if no number after the r, then release immediately)
 /\  - slide into or out of (from/to "nowhere")
 s   - legato slide
 S   - shift slide
  - natural harmonic
[n]  - artificial harmonic
n(n) - tapped harmonic
 ~   - vibrato
 tr  - trill
 T   - tap
 TP  - trem. picking
 PM  - palm muting
\n/  - tremolo bar dip; n = amount to dip
 \n  - tremolo bar down
 n/  - tremolo bar up
/n\  - tremolo bar inverted dip
 =   - hold bend; also acts as connecting device for hammers/pulls
 <>  - volume swell (louder/softer)
 x   - on rhythm slash represents muted slash
 o   - on rhythm slash represents single note slash

Misc Legend
-----------
 |  - bar
||  - double bar
||o - repeat start
o|| - repeat end
*|  - double bar (ending)
 :  - bar (freetime)
 $  - Segno
 &  - Coda
Tempo markers -  = BPM(8/16=s8/s16), where s8 = swing 8ths, s16 = swing 16ths

            
            
Suggest correction
Creating personal tab
Creating personal tab
You can edit any tab online and save it as your Personal.

You can edit, replace or remove any tab part or add personal notes – all changes will be seen only by you.

Personal tabs can be accessed anytime from any device, even offline.
Learn more »
Give kudos to tab author, rate the tab!
1 2 3 4 5
comments
print report bad tab
3 comments total.
0 reply
renaman00 114 Apr 13, 2006 03:10 PM

Nice Tab

0 reply
buried_a_lie 10 Jul 27, 2006 03:29 PM

did you just comment on your on tab?

0 reply
gunsNroses140 31 Sep 25, 2006 08:35 AM

What a loser, (renaman00) commented on his own tab....lol

guest
You may want to rate the tab now too:
select rating
Wanna post a correction for this tab? Suggest correction