Oops, an error
Loading. Please wait.

It Was A Dark And Stormy Night Hope Still Flies tab

726 views 1 this week
3 commentsread comments
1 2 3 4 5
2 more votes to show rating
add to favorites
×
Save as Personal and add changes to this tab that will be seen only by you. Learn more ›
×
You can save this tab as Personal to edit and correct it or add notes. All changes will be seen only by you. Learn more »
launch autoscroll
font size
0
reset
how to read this tab
guitar tuner
edit
Autoscroll
slow
fast
+/-
esc
set tempo
stop

INTRO

Electric 1

D#|--------------------------------------------------------------------------------------------|
A#|--------------------------------------------------------------------------------------------|
F#|-7--7/8\7--5\3--7--7/8\7--5\3--5\2--12/14----7--7/8\7--5\3--7--7/8\7--5\3--5\2--12\11-------|
C#|-x--x-x-x--x-x--x--x-x-x--x-x--x-x--x--x-----x--x-x-x--x-x--x--x-x-x--x-x--x-x--x--x--------|
G#|-5--5/6\5--3\1--5--5/6\5--3\1--3\0--10/12----5--5/6\5--3\1--5--5/6\5--3\1--3\0--10\9------5-|
C#|--------------------------------------------------------------------------------------5-8---|

Electric 2

D#|-----|
A#|-----|
F#|-----|
C#|-5-3-|
G#|-5-3-|
C#|-5-3-|


VERSE (part 1)

Electric 2

D#|--------------------------------------------------|
A#|--------------------------------------------------|
F#|--------------------------------------------------|
C#|--------------------------------------55-44-------|
G#|---------5----------5----------5-3333-----------5-|
C#|-5x12-5-8---8x12-5-8---3x12-5-8--------------5-8--|

VERSE (part 2)

Electric 1
(palm mute)
D#|---------------|
A#|---------------|
F#|-12--10--10--9-|
C#|-12--10--10--9-|
G#|-10--8---8---7-|
C#|---------------|

Electric 2

D#|--------------------------------------------------|
A#|--------------------------------------------------|
F#|--------------------------------------------------|
C#|--------------------------------------55-44-------|
G#|---------5----------5----------5-3333-----------5-|
C#|-5x12-5-8---8x12-5-8---3x12-5-8--------------5-8--|

CHORUS

Electric 1
D#|-----------------------|
A#|-----------------------|
F#|-12--14/15--14--15--17-|
C#|-x---x--x---x---x---x--|
G#|-10--12/13--12--13--15-|
C#|-----------------------|

Electric 2

D#|--------------|
A#|--------------|
F#|--------------|
C#|-1-3-5-7-8-10-|
G#|-1-3-5-7-8-10-|
C#|-1-3-5-7-8-10-|


POST 

Electric 1+2    

D#|----------|
A#|----------|
F#|----------|
C#|-5--8--10-|
G#|-5--8--10-|
C#|-5--8--10-|

VERSE (part 1)

Nothing

VERSE (part 2)

Electric 1

D#|-------------------------------------|
A#|-------------------------------------|
F#|-12-12-------------------------------|
C#|-------12-12-------------------------|
G#|-------------10-10-13h15-13h15r13-10-|
C#|-------------------------------------|

Electric 2

D#|--------------------------------------------------|
A#|--------------------------------------------------|
F#|--------------------------------------------------|
C#|--------------------------------------55-44-------|
G#|---------5----------5----------5-3333-----------5-|
C#|-5x12-5-8---8x12-5-8---3x12-5-8--------------5-8--|

CHORUS

INTRO

BRIDGE (part 1)

Electric 1+2

D#|----------------------------|
A#|----------------------------|
F#|----------------------------|
C#|-3--1--0------8--10--11--15-|
G#|-3--1--0--x2--8--10--11--15-|
C#|-3--1--0------8--10--11--15-|

BRIDGE (part 2)

Electric 1

D#|--------------|
A#|--------------|
F#|-17\14--12/14-|
C#|-x--x---x--x--|
G#|-15\12--10/12-|
C#|--------------|

Electric 2

D#|---|
A#|---|
F#|---|
C#|-3-|
G#|-3-|
C#|-3-|

CHORUS (Piano)

CHORUS VARIATION

Electric 1

D#|---------------------------|
A#|---------------------------|
F#|-12--15--12----8--17----12-|
C#|-x---x---x-----x--x--x3-x--|
G#|-10--13--10----6--15----10-|
C#|---------------------------|

Electric 2

D#|-----------------------------|
A#|-----------------------------|
F#|-----------------------------|
C#|-1--8--5----1-10-1-10-1-10-5-|
G#|-1--8--5----1-10-1-10-1-10-5-|
C#|-1--8--5----1-10-1-10-1-10-5-|

            
            
Suggest correction
Creating personal tab
Creating personal tab
You can edit any tab online and save it as your Personal.

You can edit, replace or remove any tab part or add personal notes – all changes will be seen only by you.

Personal tabs can be accessed anytime from any device, even offline.
Learn more »
Give kudos to tab author, rate the tab!
1 2 3 4 5
comments
print report bad tab
3 comments total.
0 reply
BLUE3UN 4,276 Sep 14, 2013 11:34 AM

WARNING: THIS TAB IS NOT CORRECT, I WILL BE REPOSTING IT IN DROP C# SOON BUT FOR NOW PLEASE DONT USE THIS. THANK YOU

0 reply
JESUSFREA343 1,741 Oct 19, 2014 10:11 AM

Are you sure it's in Drop C#? I saw them play it standard in a concert video...

0 reply
BLUE3UN 4,276 Oct 19, 2014 10:05 PM

Figured it would be easier lol anyways its only like 2 halfs down not super hard to transpose :P

guest
You may want to rate the tab now too:
select rating
Wanna post a correction for this tab? Suggest correction