Oops, an error
Loading. Please wait.

On Distant Shores bass

version 1
version 1

Whole song

Interactive

301 views 1 this week
no commentswrite comment
1 2 3 4 5
3 more votes to show rating
add to favorites
×
Save as Personal and add changes to this tab that will be seen only by you. Learn more ›
×
You can save this tab as Personal to edit and correct it or add notes. All changes will be seen only by you. Learn more »
launch autoscroll
font size
0
reset
guitar tuner
edit
Autoscroll
slow
fast
+/-
esc
set tempo
stop
Author
Difficulty
I found this in drop D and converted it to Standard, because, well, its easier that way.

Here's the order:
Intro Riff
Verse 1 (same as Intro riff)
Pre-Chorus
Chorus (same as Intro riff)
Intro Riff
Verse 1 (same as Intro riff)
Pre-Chorus
Chorus (same as Intro riff)
Intro Riff
Bridge
Breakdown
Outro (Every New Day)

 Intro Riff (at the start, rest 4 measures, then...

 For the rhythm, listen to the track
|----------------|--------------|----------------|----------------|
|-5-4-2-0--------|--------------|---0-2-0-2--4-5-|----4-2-0-------|
|---------2-0----|-----2-0--3---|-3--------------|-----------2----|
|-------------3--|---3----------|----------------|----------------|
                                                     
|----------------|--------------|----------------|----------------|
|-5-4-2-0--------|--------------|---0-2-0-2--4-5-|----4-2-0-------|
|---------2-0----|-----2-0--3---|-3--------------|-----------2----|
|-------------3--|---3----------|----------------|----------------|


 Verse (same as Intro riff)

 Pre-Chorus
|---------------|---------------|---------------|---------------|
|----------0-2--|---------------|----------0-2--|-7-------------|
|-0--2-3-3------|----------0-2--|-0--2-3-3------|----5-5-5-5-5--|
|---------------|-0--2-3-3------|---------------|---------------|

|---------------|---------------|---------------|-----------------|
|----------0-2--|---------------|----------0-2--|----1-1-1-2-4-2\-|
|-0--2-3-3------|----------0-2--|-0--2-3-3------|-2---------------|
|---------------|-0--2-3-3------|---------------|-----------------|


 Chorus (same as Intro Riff) 
 [after 1st Chorus, go back to Intro and start over]
 [after 2nd Chorus, go back to Intro Riff and then to Bridge]

 Bridge
||---------------|-------------|--------------|--------------|
||o-2--2-2--2-2--|-------------|--------------|--------------|
||o--------------|---2--2-5-5--|-5--5-5--5-5--|---2--2-5-5---|
||---------------|-------------|--------------|--------------|

                                                           4x
|--------------|-------------|--------------|--------------||
|--------------|-------------|--------------|--------4----o||
|-3--3-3--3-3--|---5--5-7-7--|-2--2-2--2-2--|---5---------o||
|--------------|-------------|--------------|--------------||


 Breakdown                                                                  2x
||-----------------|-----------------|-----------------|-------------------||
||o----------------|-----------------|-----------------|------------------o||
||o----------------|-----------------|-2-2-2-2-2-2-2-2-|-2-/5-5-5-5-5-5-5-o||
||-5-5-5-5-5-5-5-5-|-5-2-2-2-2-2-2-2-|-----------------|-------------------||

|-----------------|-----------------|-----------------|-----------------|
|-----------------|-----------------|-----------------|-----------------|
|-0-0-0-0-0-0-0-0-|-0-3-3-3-3-3-3-3-|-0-0-0-0-0-0-0-0-|-0-3-3-3-3-5-5-5-|
|-----------------|-----------------|-----------------|-----------------|

                                                                            3x
||-----------------|-----------------|-----------------|-------------------||
||o----------------|-----------------|-----------------|------------------o||
||o----------------|-----------------|-2-2-2-2-2-2-2-2-|-2-/5-5-5-5-5-5-5-o||
||-3-3-3-3-3-3-3-3-|-3-0-0-0-0-0-0-0-|-----------------|-------------------||

|-----------------|-----------------|-----------------|-----------------|
|-----------------|-----------------|-----------------|-----------------|
|-0-0-0-0-0-0-0-0-|-0-3-3-3-3-3-3-3-|-0-0-0-0-0-0-0-0-|-0-3-3-3-3-5-5-5-|
|-----------------|-----------------|-----------------|-----------------|

|-----------------|-----------------|-----------------|------------------|
|-----------------|-----------------|-----------------|------------------|
|-----------------|-----------------|-2-2-2-2-2-2-2-2-|-2-/5-5-5-5-5-5-5-|
|-3-3-3-3-3-3-3-3-|-3-0-0-0-0-0-0-0-|-----------------|------------------|


   Outro (Every New Day)
||------------------|-----------------|-----------------|-----------------|
||o-----------------|-----------------|-----------------|-----------------|
||o-7-7-7-7-7-7-7-7-|-x-x-2-2-2-2-2-2-|-----------------|-x-x-4-4-2-2-2-2-|
||------------------|-----------------|-4-4-4-4-4-4-4-4-|-----------------|

                                                                          4x
|-----------------|-----------------|-----------------|-------------------||
|-----------------|-----------------|-----------------|------------------o||
|-0-0-0-0-0-0-0-0-|-----------------|-----------------|-x-x-2-2-2-2-2-2--o||
|-----------------|-x-x-4-4-4-4-4-4-|-2-2-2-2-2-2-2-2-|-------------------||

||------------------|-----------------|-----------------|-----------------|
||o-----------------|-----------------|-----------------|-----------------|
||o-7-7-7-7-7-7-7-7-|-2-2-2-2-2-2-2-2-|-----------------|-4-4-4-4-2-2-2-2-|
||------------------|-----------------|-4-4-4-4-4-4-4-4-|-----------------|

                                                                          2x
|-----------------|-----------------|-----------------|-------------------||
|-----------------|-----------------|-----------------|------------------o||
|-0-0-0-0-0-0-0-0-|-----------------|-----------------|-2-2-2-2-2-2-2-2--o||
|-----------------|-4-4-4-4-4-4-4-4-|-2-2-2-2-2-2-2-2-|-------------------||


|----------||
|----------||
|-7--------||
|----------||


Hope it works for you.

            
            
Suggest correction
Creating personal tab
Creating personal tab
You can edit any tab online and save it as your Personal.

You can edit, replace or remove any tab part or add personal notes – all changes will be seen only by you.

Personal tabs can be accessed anytime from any device, even offline.
Learn more »
Give kudos to tab author, rate the tab!
1 2 3 4 5
comments
print report bad tab
guest
You may want to rate the tab now too:
select rating
Wanna post a correction for this tab? Suggest correction