Oops, an error
Loading. Please wait.

Better With You Tab

version 1
version 1

Acoustic

Whole song

40,753 views 1 this week
4 commentsread comments
1 2 3 4 5
excellent!
x 9
add to favorites
launch autoscroll
font size
0
reset
how to read this tab
guitar tuner
Tab Pro tools
  • play this tab
  • loop segment
  • change instrument
  • show fretboard
  • metronome
×
Best way to learn
"Better With You"
Autoscroll
slow
fast
+/-
esc
set tempo
stop
Difficulty
intermediate
** Alrighty, Here's a bit better Version of this song, Writen By Brad Skistimas - Five 
August **

I Believe this is it..

CAPO on Fret 1 !! Or it won't sound as nice..

h = Hammer On
/ = Slide UP
\ = Slide DOWN
X = Don't Hit String

Intro


  Palm Mute these 4
X-----X-----X------X---|
3-----3-----3------3---|
0-----0-----0------0---|
0-----0-----0------0---|
0-----0-----0------0---|
3-----3-----3------3---|


Intro
X-----X-----X-----3--2--3-------X-----X-----X-------0---------3-|
3-----3-----3-----3--3--3-------3-----3-----3-------3/ 5 \3---3-|
0h2---0h2---0-----2--2--2-------2h0---0h2---0h2-----2/ 4 \2---0-|
0-----0-----0h2---0--0--0-------0-----0-----0-------0---------2-|
X-----2-----3-----x--x--x-------X-----X-----2-------X---------3-|
3-----X-----X-----x--x--x-------X-----3-----X-------X---------X-|

Verse
X---------X----------X---------X---|
3---------3----------3---------3---|
0h2-------0h2--------0---------2h0-|
0---------0----------0h2-------0---|
X---------2----------3---------X---|
3---------X----------X---------X---|

Chorus
---x-----x-----x------x-------x-----x-----x-------|
---3-----3-----3------3-------3-----3-----3-------|
---0-----2-----0------2-------0-----2-----0-------|
---0-----0-----0------0-------0-----0-----0-------|
---2-----x-----3------x-------2-----x-----3-------|
---x-----x-----x------x-------x-----x-----x-------|

Bridge/Outro:
So use me dont let me..
3-------3-------3--------3-|
1-------1-------1--------3-|
0-------0-------0--------0-|
2-------0-------2--------2-|
0-------2-------3--------2-|
X-------X-------X--------0-|

Verse
X---------X----------X---------X---|
3---------3----------3---------3---|
0h2-------0h2--------0---------2h0-|
0---------0----------0h2-------0---|
X---------2----------3---------X---|
3---------X----------X---------X---|

Chorus
---x-----x-----x------x-------x-----x-----x-------|
---3-----3-----3------3-------3-----3-----3-------|
---0-----2-----0------2-------0-----2-----0-------|
---0-----0-----0------0-------0-----0-----0-------|
---2-----x-----3------x-------2-----x-----3-------|
---x-----x-----x------x-------x-----x-----x-------|

Bridge/Outro:
So use me dont let me..
3-------3-------3--------3-|
1-------1-------1--------3-|
0-------0-------0--------0-|
2-------0-------2--------2-|
0-------2-------3--------2-|
X-------X-------X--------0-|

*** Alrighty This is My First Time Ever Writing Tabs So please email me to give me your 
on how good / bad I did    shagsterzack@hotmail.com, Thanks Guys ***
comments
print report bad tab
4 comments total. Showing first comments.
0 reply
acoustic_life wrote on January 9 2007, 08:40 pm

intros wrong. other than that its pretty good.
e-------------------------------------------------------------------
B--3---3---3---3------3-3-x-3-----3---3---3---3----4\6-6-6-6-6/4----
G--0h2-2---0h2-2------2-2-x-2r0---0h2-2---0h2-2----3\5-5-5-5-5/3r0--
D--0---0---0---0------3-3-x-0-----0---0---0---2----0---0-0-0--------
A--x-------2---2h3----------------x-------2---2h3-------------------
E--3------------------------------3---------------------------------

0 reply
acoustic_life wrote on January 9 2007, 08:40 pm

intros wrong. other than that its pretty good.
e-------------------------------------------------------------------
B--3---3---3---3------3-3-x-3-----3---3---3---3----4\6-6-6-6-6/4----
G--0h2-2---0h2-2------2-2-x-2r0---0h2-2---0h2-2----3\5-5-5-5-5/3r0--
D--0---0---0---0------3-3-x-0-----0---0---0---2----0---0-0-0--------
A--x-------2---2h3----------------x-------2---2h3-------------------
E--3------------------------------3---------------------------------

0 reply
guitarflip wrote on May 6 2007, 05:06 am

I'm having trouble with the strumming, can anyone help me?

I want to post or [tab]
guest
You may want to rate the tab now too:
select rating
Please do not post tabs as comments. Select "correction" instead!