Oops, an error
Loading. Please wait.

Intimate Tab

10 views 6 this week
no commentswrite comment
1 2 3 4 5
3 more votes to show rating
add to favorites
launch autoscroll
font size
0
reset
how to read this tab
guitar tuner
Autoscroll
slow
fast
+/-
esc
set tempo
stop
Help us to improve Ultimate-Guitar.com Take our survey!
×
Author
Difficulty
intermediate
[Main riff]
(Guitar 1)
(Repeat)
e|-------------------------------------------------1-1-1---|
B|---------1------------------------1---1----------0-0-0---|
G|-------0---0----------1--1--1-----2---2----------2-2-2---|
D|-----2---------2------2--2--2-----2---2----------3-3-3---|
A|---3-------------3----2--2--2-------0----0-------3-3-3---|
E|-------------------0----------0-3-----------3-1--1-1-1---|

(Guitar 2)
e|--------------------------------6/7--5---------|
B|------5-8--5------5-9--5------5---------5------|
G|--5-7---------5-7---------5-7-------------7-5--|
D|-----------------------------------------------|
A|-----------------------------------------------|
E|-----------------------------------------------|

e|--------------------------------6/7--5----------|
B|------5-8--5------5-9--5------5--------5--------|
G|--5-7---------5-7---------5-7-----------6/7-5-5-|
D|------------------------------------------------|
A|------------------------------------------------|
E|------------------------------------------------|

e|-----------------------------------------------|
B|-----------------------------------------------|
G|--------------------------------3/4--2---------|
D|------2-5--2------2-6--2------2---------2------|
A|--3-5---------3-5---------3-5-------------5-3--|
E|-----------------------------------------------|

e|-------------------------------------------------|
B|-------------------------------------------------|
G|--------------------------------3/4--2-4/5-4-2---|
D|------2-5--2------2-6--2------2----------------2-|
A|--3-5---------3-5---------3-5--------------------|
E|-------------------------------------------------|


************************************

| /  Slide up

************************************
Suggest correction
Give kudos to tab author, rate the tab!
1 2 3 4 5
comments
print report bad tab
guest
You may want to rate the tab now too:
select rating
Wanna post a correction for this tab? Suggest correction