Oops, an error
Loading. Please wait.

Headin For The Texas Boarder Bass Tab

16 views 1 this week
no commentswrite comment
1 2 3 4 5
3 more votes to show rating
add to favorites
launch autoscroll
font size
0
reset
guitar tuner
Autoscroll
slow
fast
+/-
esc
set tempo
stop
Help us to improve Ultimate-Guitar.com Take our survey!
×
Author
Difficulty
Intro                                           x2
G|------------------------------------------------|------------------------------------------------|
D|------------------------------------------------|--------------5-5--7-7----------------5-5--7-7--|
A|------------------------------------------------|-7---7--7-7-7-----------7---7--7-7-7------------|
E|------------------------------------------------|------------------------------------------------|


Verse ("Heading For The Texas Boarder...")                                                       x2
G|------------------------------------------------------------------------|-------------------------|
D|-------------------------------------------------------5-5-5-5--7-7-7-7-|---------------5-5--7-7--|
A|-7-7-7-7-7-7-7-7--5/7-7-7-7-7-7-7-7--5/7-7-7-7-7-7-7-7------------------|-7---7--7-7-7------------|
E|------------------------------------------------------------------------|-------------------------|
                                                                                                  x2
G|-------------------------------------------------------5-5-5-5--7-7-7-7-|-------------------------|
D|-7-7-7-7-7-7-7-7--5/7-7-7-7-7-7-7-7--5/7-7-7-7-7-7-7-7------------------|---------------5-5--7-7--|
A|------------------------------------------------------------------------|-7---7--7-7-7------------|
E|------------------------------------------------------------------------|-------------------------|
                                                         x2
G|-------------------------------|-------------------------|
D|-9-9-9-9-9-9-9-9--7------------|--------------5-5--7-7---|
A|-------------------------------|-7---7--7-7-7------------|
E|-------------------------------|-------------------------|


Verse ("And I'll Tell Them Fancy Stories...")                                                     x2
G|------------------------------------------------------------------------|-------------------------|
D|-------------------------------------------------------5-5-5-5--7-7-7-7-|---------------5-5--7-7--|
A|-7-7-7-7-7-7-7-7--5/7-7-7-7-7-7-7-7--5/7-7-7-7-7-7-7-7------------------|-7---7--7-7-7------------|
E|------------------------------------------------------------------------|-------------------------|
                                                                                                  x2
G|-------------------------------------------------------5-5-5-5--7-7-7-7-|-------------------------|
D|-7-7-7-7-7-7-7-7--5/7-7-7-7-7-7-7-7--5/7-7-7-7-7-7-7-7------------------|---------------5-5--7-7--|
A|------------------------------------------------------------------------|-7---7--7-7-7------------|
E|------------------------------------------------------------------------|-------------------------|
                                                         x2
G|-------------------------------|-------------------------|
D|-9-9-9-9-9-9-9-9--7------------|--------------5-5--7-7---|
A|-------------------------------|-7---7--7-7-7------------|
E|-------------------------------|-------------------------|


Chorus ("Well I Won't Tell Bout The Heartache...")
G|--------------------------------------------------------------------|
D|--------------------------------------------------------------------|
A|-7-7-7-7-7-7-7-7--7-7-7-7-7-7-7-7--7-7-7-7-7-7-7-7--7-7-7-7-7-7-7-7-|
E|--------------------------------------------------------------------|

("Well I'm Going To El Paso...")                                                            x2
G|------------------------------------------------------------------|-------------------------|
D|------------------------------------------------------------------|-------------------------|
A|-----------------------------------7-7-7-7-7-7-7-7----------------|-7---7-------------------|
E|-5-5-5-5-5-5-5-5--5-5-5-5-5-5-5-5-------------------7--7----------|-------------------------|


Solo                                                                                              x2
G|------------------------------------------------------------------------|-------------------------|
D|-------------------------------------------------------5-5-5-5--7-7-7-7-|---------------5-5--7-7--|
A|-7-7-7-7-7-7-7-7--5/7-7-7-7-7-7-7-7--5/7-7-7-7-7-7-7-7------------------|-7---7--7-7-7------------|
E|------------------------------------------------------------------------|-------------------------|
                                                                                                  x2
G|-------------------------------------------------------5-5-5-5--7-7-7-7-|-------------------------|
D|-7-7-7-7-7-7-7-7--5/7-7-7-7-7-7-7-7--5/7-7-7-7-7-7-7-7------------------|---------------5-5--7-7--|
A|------------------------------------------------------------------------|-7---7--7-7-7------------|
E|------------------------------------------------------------------------|-------------------------|
                                                         x2
G|-------------------------------|-------------------------|
D|-9-9-9-9-9-9-9-9--7------------|--------------5-5--7-7---|
A|-------------------------------|-7---7--7-7-7------------|
E|-------------------------------|-------------------------|


Verse ("I've Got A Gal In Dallas...")                                                             x2
G|------------------------------------------------------------------------|-------------------------|
D|-------------------------------------------------------5-5-5-5--7-7-7-7-|---------------5-5--7-7--|
A|-7-7-7-7-7-7-7-7--5/7-7-7-7-7-7-7-7--5/7-7-7-7-7-7-7-7------------------|-7---7--7-7-7------------|
E|------------------------------------------------------------------------|-------------------------|
                                                                                                  x2
G|-------------------------------------------------------5-5-5-5--7-7-7-7-|-------------------------|
D|-7-7-7-7-7-7-7-7--5/7-7-7-7-7-7-7-7--5/7-7-7-7-7-7-7-7------------------|---------------5-5--7-7--|
A|------------------------------------------------------------------------|-7---7--7-7-7------------|
E|------------------------------------------------------------------------|-------------------------|
                                                         x2
G|-------------------------------|-------------------------|
D|-9-9-9-9-9-9-9-9--7------------|--------------5-5--7-7---|
A|-------------------------------|-7---7--7-7-7------------|
E|-------------------------------|-------------------------|


Verse                                                                                             x2
G|------------------------------------------------------------------------|-------------------------|
D|-------------------------------------------------------5-5-5-5--7-7-7-7-|---------------5-5--7-7--|
A|-7-7-7-7-7-7-7-7--5/7-7-7-7-7-7-7-7--5/7-7-7-7-7-7-7-7------------------|-7---7--7-7-7------------|
E|------------------------------------------------------------------------|-------------------------|
                                                                                                  x2
G|-------------------------------------------------------5-5-5-5--7-7-7-7-|-------------------------|
D|-7-7-7-7-7-7-7-7--5/7-7-7-7-7-7-7-7--5/7-7-7-7-7-7-7-7------------------|---------------5-5--7-7--|
A|------------------------------------------------------------------------|-7---7--7-7-7------------|
E|------------------------------------------------------------------------|-------------------------|
                                                         x2
G|-------------------------------|-------------------------|
D|-9-9-9-9-9-9-9-9--7------------|--------------5-5--7-7---|
A|-------------------------------|-7---7--7-7-7------------|
E|-------------------------------|-------------------------|


Chorus ("And I Don't Know Where I'm Going...")
G|--------------------------------------------------------------------|
D|--------------------------------------------------------------------|
A|-7-7-7-7-7-7-7-7--7-7-7-7-7-7-7-7--7-7-7-7-7-7-7-7--7-7-7-7-7-7-7-7-|
E|--------------------------------------------------------------------|

("Where The Sheriff Don't Know My Number...")
G|------------------------------------------------------------------|
D|------------------------------------------------------------------|
A|-----------------------------------7-7-7-7-7-7-7-7----------------|
E|-5-5-5-5-5-5-5-5--5-5-5-5-5-5-5-5-------------------7--7----------|


Outro                   x28
G|-------------------------|-------------------------|----------------------------------------------------|
D|---------------5-5--7-7--|-------------------------|---------------5-5--7-7----------------5-5--7-7-----|
A|-7---7--7-7-7------------|-----Drum-Fill-----------|-7---7--7-7-7------------7---7--7-7-7------------7--|
E|-------------------------|-------------------------|----------------------------------------------------|
Suggest correction
Give kudos to tab author, rate the tab!
1 2 3 4 5
comments
print report bad tab
guest
You may want to rate the tab now too:
select rating
Wanna post a correction for this tab? Suggest correction