Oops, an error
Loading. Please wait.

Road House Bass Tab

118 views 1 this week
no commentswrite comment
1 2 3 4 5
please rate
add to favorites
launch autoscroll
font size
0
reset
guitar tuner
Tab Pro tools
  • play this tab
  • loop segment
  • change instrument
  • show fretboard
  • metronome
Autoscroll
slow
fast
+/-
esc
set tempo
stop
Contributor
Difficulty
intermediate
Intro
G----------------------------------------------------|
D-----------------------------------------5--5--5--5-|
A-7-----------5-------------------------7--7--7--7---|
E--------------------------5-------------------------|

Verse/Main riff
G----------------------------------------------------|
D---5--5--5--5--3--3--3--3----------------5--5--5--5-|
A-7--7--7--7--5--5--5--5----3--3--3--3--7--7--7--7---|
E--------------------------5--5--5--5----------------|

Chorus (for lack of a better term)
G----------------------------------------------------------|
D--6-7-8-9-8-7-6-4-5-6-7-6-5-4------------------5--5--5--5-|
A-7-------------5--------------4-5-6-7-6-5-4--7--7--7--7---|
E-----------------------------5----------------------------|

Solo (Behind the guitar part its just this)
G-----------------------------------------------------------|
D-----------------------------------------------------------|
A-7-7-7-7-7-7-5-5-5-5-5-5-------------3-3-3-3-3-3-7-7-7-7-7-|
E-------------------------5-5-5-5-5-5-----------------------|

(Then during the drum solo part it's back to)
G----------------------------------------------------|
D---5--5--5--5--3--3--3--3----------------5--5--5--5-|
A-7--7--7--7--5--5--5--5----3--3--3--3--7--7--7--7---|
E--------------------------5--5--5--5----------------|

(then 3:15 you just hit open E and follow the crash cymbal building up) 
G---------------------------------------------------|
D---------------------------------------------------|
A-7-7-7-7-7-7-7-7-7-7-7-7-7-7-7-7-7-7-7-7-7-7-7-7-7-|
E-0-0-0-0-0-0-0-0-0-0-0-0-0-0-0-0-0-0-0-0-0-0-0-0-0-|

G----------------------------------------------------|
D----------------------------------------------------|
A-7-----------5-------------------------7------------|
E--------------------------5-------------------------|

And that's all there is to it. You can figure out the order yourself- it's super easy.
comments
We did not receive enough feedback on this tab! Please rate:
print report bad tab
1 2 3 4 5
I want to post or [tab]
guest
You may want to rate the tab now too:
select rating
Please do not post tabs as comments. Select "correction" instead!