Oops, an error
Loading. Please wait.

Shakin All Over Bass Tab

28 views 1 this week
no commentswrite comment
1 2 3 4 5
3 more votes to show rating
add to favorites
launch autoscroll
font size
0
reset
guitar tuner
Autoscroll
slow
fast
+/-
esc
set tempo
stop
Help us to improve Ultimate-Guitar.com Take our survey!
×
Intro
G-----9-9-7-7-----|-----9-9-7-7-----|-----9-9-7-7-----|-----9-9-7-7-----|
D-------------9-9-|-------------9-9-|-------------9-9-|-------------9-9-|
A-7-7-------------|-7-7-------------|-7-7-------------|-7-7-------------|
E-----------------|-----------------|-----------------|-----------------|

Verse ("When You Move In...")
G-----9-9-7-7-----|-----9-9-7-7-----|-----9-9-7-7-----|-----9-9-7-7-----|
D-------------9-9-|-------------9-9-|-------------9-9-|-------------9-9-|
A-7-7-------------|-7-7-------------|-7-7-------------|-7-7-------------|
E-----------------|-----------------|-----------------|-----------------|

G-----9-9-7-7-----|-----9-9-7-7-----|-----9-9-7-7-----|-----9-9-7-7-----|
D-------------9-9-|-------------9-9-|-------------9-9-|-------------9-9-|
A-7-7-------------|-7-7-------------|-7-7-------------|-7-7-------------|
E-----------------|-----------------|-----------------|-----------------|

Chorus 
G--------------------------|-----9-9-7-7-----|-----9-9-7-7-----|
D--------------------------|-------------9-9-|-------------9-9-|
A---7------------12--12-12-|-7-7-------------|-7-7-------------|
E---0----------------------|-----------------|-----------------|
                                                     ("Shakin' All Over")
G-------14-14-12-12-------|-------14-14-12-12-------|--------------------------|
D-------------------14-14-|-------------------14-14-|--------------------------|
A-12-12-------------------|-12-12-------------------|-7------------------------|
E-------------------------|-------------------------|--------------------------|

Intro
G-----9-9-7-7-----|-----9-9-7-7-----|-----9-9-7-7-----|-----9-9-7-7-----|
D-------------9-9-|-------------9-9-|-------------9-9-|-------------9-9-|
A-7-7-------------|-7-7-------------|-7-7-------------|-7-7-------------|
E-----------------|-----------------|-----------------|-----------------|

Verse ("Every time you say goodnight to me...")
G-----9-9-7-7-----|-----9-9-7-7-----|-----9-9-7-7-----|-----9-9-7-7-----|
D-------------9-9-|-------------9-9-|-------------9-9-|-------------9-9-|
A-7-7-------------|-7-7-------------|-7-7-------------|-7-7-------------|
E-----------------|-----------------|-----------------|-----------------|

G-----9-9-7-7-----|-----9-9-7-7-----|-----9-9-7-7-----|-----9-9-7-7-----|
D-------------9-9-|-------------9-9-|-------------9-9-|-------------9-9-|
A-7-7-------------|-7-7-------------|-7-7-------------|-7-7-------------|
E-----------------|-----------------|-----------------|-----------------|

Chorus 
G--------------------------|-----9-9-7-7-----|-----9-9-7-7-----|
D--------------------------|-------------9-9-|-------------9-9-|
A---7------------12--12-12-|-7-7-------------|-7-7-------------|
E---0----------------------|-----------------|-----------------|
                                                     ("Shakin' All Over")
G-------14-14-12-12-------|-------14-14-12-12-------|--------------------------|
D-------------------14-14-|-------------------14-14-|--------------------------|
A-12-12-------------------|-12-12-------------------|-7------------------------|
E-------------------------|-------------------------|--------------------------|

Solo
G-----9-9-7-7-----|-----9-9-7-7-----|-----9-9-7-7-----|-----9-9-7-7-----|
D-------------9-9-|-------------9-9-|-------------9-9-|-------------9-9-|
A-7-7-------------|-7-7-------------|-7-7-------------|-7-7-------------|
E-----------------|-----------------|-----------------|-----------------|

G-------14-14-12-12-------|-------14-14-12-12-------|-----9-9-7-7-----|-----9-9-7-7-----|
D-------------------14-14-|-------------------14-14-|-------------9-9-|-------------9-9-|
A-12-12-------------------|-12-12-------------------|-7-7-------------|-7-7-------------|
E-------------------------|-------------------------|-----------------|-----------------|

G-------16-16-14-14-------|-------14-14-12-12-------|-----9-9-7-7-----|-----9-9-7-7-----|
D-------------------16-16-|-------------------14-14-|-------------9-9-|-------------9-9-|
A-14-14-------------------|-12-12-------------------|-7-7-------------|-7-7-------------|
E-------------------------|-------------------------|-----------------|-----------------|

G-----9-9-7-7-----|-----9-9-7-7-----|-----9-9-7-7-----|-----9-9-7-7-----|
D-------------9-9-|-------------9-9-|-------------9-9-|-------------9-9-|
A-7-7-------------|-7-7-------------|-7-7-------------|-7-7-------------|
E-----------------|-----------------|-----------------|-----------------|

G-------14-14-12-12-------|-------14-14-12-12-------|-----9-9-7-7-----|-----9-9-7-7-----|
D-------------------14-14-|-------------------14-14-|-------------9-9-|-------------9-9-|
A-12-12-------------------|-12-12-------------------|-7-7-------------|-7-7-------------|
E-------------------------|-------------------------|-----------------|-----------------|

G-------16-16-14-14-------|-------14-14-12-12-------|-----9-9-7-7-----|-----9-9-7-7-----|
D-------------------16-16-|-------------------14-14-|-------------9-9-|-------------9-9-|
A-14-14-------------------|-12-12-------------------|-7-7-------------|-7-7-------------|
E-------------------------|-------------------------|-----------------|-----------------|

Chorus 
G--------------------------|-----9-9-7-7-----|-----9-9-7-7-----|
D--------------------------|-------------9-9-|-------------9-9-|
A---7------------12--12-12-|-7-7-------------|-7-7-------------|
E---0----------------------|-----------------|-----------------|
                                                     ("Shakin' All Over")
G-------14-14-12-12-------|-------14-14-12-12-------|--------------------------|
D-------------------14-14-|-------------------14-14-|--------------------------|
A-12-12-------------------|-12-12-------------------|-7------------------------|
E-------------------------|-------------------------|--------------------------|

Bridge/2nd Solo                                                         2:30-5:39
G-----------------------------------------------------------------|---------------------------------|
D-----------------------------------------------------------------|---------------------------------|
A-7---------------7---------------7---------------7---------------|-7-7-7-7-7-7-7-7-7-7-7-7-7-7-7-7-|
E-0---------------0---------------0---------------0---------------|-0-0-0-0-0-0-0-0-0-0-0-0-0-0-0-0-|
                                                                  (You strum E for 3 minutes straight)
Chorus 
G--------------------------|-----9-9-7-7-----|-----9-9-7-7-----|
D--------------------------|-------------9-9-|-------------9-9-|
A---7------------12--12-12-|-7-7-------------|-7-7-------------|
E---0----------------------|-----------------|-----------------|
                                                     ("Shakin' All Over")
G-------14-14-12-12-------|-------14-14-12-12-------|--------------------------|---------------------|
D-------------------14-14-|-------------------14-14-|--------------------------|---------------------|
A-12-12-------------------|-12-12-------------------|-7------------------------|-7-------------------|
E-------------------------|-------------------------|--------------------------|-0-------------------|
Suggest correction
Give kudos to tab author, rate the tab!
1 2 3 4 5
comments
print report bad tab
guest
You may want to rate the tab now too:
select rating
Wanna post a correction for this tab? Suggest correction