Oops, an error
Loading. Please wait.

Yeah My Baby Bass Tab

10 views 1 this week
no commentswrite comment
1 2 3 4 5
3 more votes to show rating
add to favorites
launch autoscroll
font size
0
reset
guitar tuner
Autoscroll
slow
fast
+/-
esc
set tempo
stop
Help us to improve Ultimate-Guitar.com Take our survey!
×
Author
Difficulty
Intro                              x3
G|-----------------------------------|-----------------------------------|
D|-----------------------------------|-----------------------------------|
A|-----------------------------------|---------------0--1-1-1-1-1-1-1-0--|
E|-----------------------------------|-1-1-1-1-1-1-1---------------------|

Verse                                                                x5
G|---------------------------------------------------------------------|
D|---------------------------------------------------------------------|
A|---------------0--1-1-1-1-1-1-1-0----------------0--1-1-1-1-1-1-1-0--|
E|-1-1-1-1-1-1-1---------------------1-1-1-1-1-1-1---------------------|


Chorus  ("Yeah My Baby...")        x4                                             
G|-----------------------------------|--------------------------------------------------------------------|
D|-----------------------------------|--------------------------------------------------------------------|
A|---------------0--1-1-1-1-1-1-1-0--|-1-1-1-1-1-1-1-1-1--1-1-1-1-1-1-1-1--1-1-1-1-1-1-1-1--1-1-1-1-1-1-1-|
E|-1-1-1-1-1-1-1---------------------|--------------------------------------------------------------------|


Verse                                                                x6
G|---------------------------------------------------------------------|
D|---------------------------------------------------------------------|
A|---------------0--1-1-1-1-1-1-1-0----------------0--1-1-1-1-1-1-1-0--|
E|-1-1-1-1-1-1-1---------------------1-1-1-1-1-1-1---------------------|


Chorus  ("Yeah My Baby...")        x4                                             
G|-----------------------------------|--------------------------------------------------------------------|
D|-----------------------------------|--------------------------------------------------------------------|
A|---------------0--1-1-1-1-1-1-1-0--|-1-1-1-1-1-1-1-1-1--1-1-1-1-1-1-1-1--1-1-1-1-1-1-1-1--1-1-1-1-1-1-1-|
E|-1-1-1-1-1-1-1---------------------|--------------------------------------------------------------------|

G|--------------------------------------------------------------------|
D|--------------------------------------------------------------------|
A|-3-3-3-3-3-3-3-3--3-3-3-3-3-3-3-3--1-1-1-1-1-1-1-1--1-1-1-1-1-1-1-1-|
E|--------------------------------------------------------------------|


Outro                                                               x24
G|---------------------------------------------------------------------|
D|---------------------------------------------------------------------|
A|---------------0--1-1-1-1-1-1-1-0----------------0--1-1-1-1-1-1-1-0--|
E|-1-1-1-1-1-1-1---------------------1-1-1-1-1-1-1---------------------|


Extremely simple song, That's the whole thing, in order too. 
Suggest correction
Give kudos to tab author, rate the tab!
1 2 3 4 5
comments
print report bad tab
guest
You may want to rate the tab now too:
select rating
Wanna post a correction for this tab? Suggest correction