Oops, an error
Loading. Please wait.

Walking In The Rain Bass Tab

1,126 views 3 this week
no commentswrite comment
1 2 3 4 5
please rate
add to favorites
launch autoscroll
font size
0
reset
guitar tuner
Autoscroll
slow
fast
+/-
esc
set tempo
stop
Help us to improve Ultimate-Guitar.com Take our survey!
×
Author
Difficulty
novice
repeat over and over
G------8-6------------------------------------|
D----------8-6-----6-8------------------------|
A---6------------9----------------------------|
E---------------------------------------------|

then
G---------------------------------------------|
D---------------------------------------------|
A------4-4-4-4--------------------------------|
E----------------4-4-4-4----------------------|
Suggest correction
Give kudos to tab author, rate the tab!
1 2 3 4 5
comments
print report bad tab
guest
You may want to rate the tab now too:
select rating
Please do not post tabs as comments. Select "correction" instead!