Oops, an error
Loading. Please wait.

I Dont Not Love You Tab

1,477 views 1 this week
1 commentread comment
1 2 3 4 5
accurate
x 2
add to favorites
launch autoscroll
font size
0
reset
how to read this tab
guitar tuner
Tab Pro tools
  • play this tab
  • loop segment
  • change instrument
  • show fretboard
  • metronome
Autoscroll
slow
fast
+/-
esc
set tempo
stop
Contributor
-------------------------------------------------------------------------------
                             I Don't Not Love You - Flashguns
-------------------------------------------------------------------------------
Tabbed by: TheWombats76243
Tuning: EADGBe (standard)
http://www.flashguns.com/

this is how i think it goes it may not be 100% but it is a start and any of your input is welcome 

intro: 
(im just putting the basic rhythm in, there may be more strums around this)

    C#m      E     C#m      E     C#m      E     C#m   Dmaj7
e|-----------------------------------------------------------|
B|--5--5---9-9-9---5--5---9-9-9---5--5---9-9-9---5--5--7--7--|
G|--6--6---9-9-9---6--6---9-9-9---6--6---9-9-9---6--6--6--6--|
D|--6--6---9-7-7---6--6---9-7-7---6--6---9-7-7---6--6--7--7--|
A|--4--4---7-7-7---4--4---7-7-7---4--4---7-7-7---4--4--5--5--|
E|-----------------------------------------------------------|


    C#m      E     C#m      E     C#m      E       Dmaj7
e|-----------------------------------------------------------|
B|--5--5---9-9-9---5--5---9-9-9---5--5---9-9-9----7-7-7-7----|
G|--6--6---9-9-9---6--6---9-9-9---6--6---9-9-9----6-6-6-6----|
D|--6--6---9-7-7---6--6---9-7-7---6--6---9-7-7----7-7-7-7----|
A|--4--4---7-7-7---4--4---7-7-7---4--4---7-7-7----5-5-5-5----|
E|-----------------------------------------------------------|

   C#m   E  C#m   E
e|---------------------------|
B|-------9---14---12--10-----|
G|--9----9---13---13---------|
D|--11---9---14---14---------| 
A|--11---7---X---------------|
E|--9--------12--------------|

Verse:

"down, im down..."
   C#m   E  C#m   
e|---------------------------|
B|-------9---14---12--10-----|
G|--9----9---13---13---------|
D|--11---9---14---14---------| 
A|--11---7---X---------------|
E|--9--------12--------------|

   C#m   E  C#m     Dmaj7 
e|--------------------------------------|
B|-------9---14---14----14-14-14-14-14--|
G|--9----9---13---14----14-14-14-14-14--|
D|--11---9---14---16----16-16-16-16-16--| 
A|--11---7---X----17----17-17-17-17-17--|
E|--9--------12-------------------------|

Chorus:

"i feel, you're pain..."

    C#m      E     C#m      E     C#m      E      Dmaj7
e|--------------------------------------------------------|
B|--5--5---9-9-9---5--5---9-9-9---5--5---9-9-9---7-7-7-7--|
G|--6--6---9-9-9---6--6---9-9-9---6--6---9-9-9---6-6-6-6--|
D|--6--6---9-7-7---6--6---9-7-7---6--6---9-7-7---7-7-7-7--|
A|--4--4---7-7-7---4--4---7-7-7---4--4---7-7-7---5-5-5-5--|
E|--------------------------------------------------------|

"find, somebody close..."
      C#m       E       C#m       E       C#m       E       C#m       E
e|--4--4--4--7--7--7--4--4--4--7--7--7--4--4--4--7--7--7--4--4--4--7--7--7--|
B|--5--5--5--9--9--9--5--5--5--9--9--9--5--5--5--9--9--9--5--5--5--9--9--9--|
G|--6--6--6--9--9--9--6--6--6--9--9--9--6--6--6--9--9--9--6--6--6--9--9--9--|
D|--6--6--6--9--9--9--6--6--6--9--9--9--6--6--6--9--9--9--6--6--6--9--9--9--|
A|--4--4--4--7--7--7--4--4--4--7--7--7--4--4--4--7--7--7--4--4--4--7--7--7--|
E|--------------------------------------------------------------------------|
       E   C#m   D      C#m
e|-----7----4----5------4--4--|
B|-----9----5----7------5--5--|
G|-----9----6----7------6--6--|
D|-----9----6----7------6--6--|
A|-----7----4----4------4--4--|
E|----------------------------|

"follow you're heart, follow you're heart. I don't not love you 

      C#m       E       C#m       E       C#m       E       C#m       E
e|--4--4--4--7--7--7--4--4--4--7--7--7--4--4--4--7--7--7--4--4--4--7--7--7--|
B|--5--5--5--9--9--9--5--5--5--9--9--9--5--5--5--9--9--9--5--5--5--9--9--9--|
G|--6--6--6--9--9--9--6--6--6--9--9--9--6--6--6--9--9--9--6--6--6--9--9--9--|
D|--6--6--6--9--9--9--6--6--6--9--9--9--6--6--6--9--9--9--6--6--6--9--9--9--|
A|--4--4--4--7--7--7--4--4--4--7--7--7--4--4--4--7--7--7--4--4--4--7--7--7--|
E|--------------------------------------------------------------------------|
       E   C#m   D      C#m
e|-----7----4----5------4--4--|
B|-----9----5----7------5--5--|
G|-----9----6----7------6--6--|
D|-----9----6----7------6--6--|
A|-----7----4----4------4--4--|
E|----------------------------|


   C#m   E  C#m   E
e|---------------------------|
B|-------9---14---12--10-----|
G|--9----9---13---13---------|
D|--11---9---14---14---------| 
A|--11---7---X---------------|
E|--9--------12--------------|

Verse:

"hurt, im hurt..."
   C#m   E  C#m   
e|---------------------------|
B|-------9---14---12--10-----|
G|--9----9---13---13---------|
D|--11---9---14---14---------| 
A|--11---7---X---------------|
E|--9--------12--------------|

   C#m   E  C#m     Dmaj7 
e|--------------------------------------|
B|-------9---14---14----14-14-14-14-14--|
G|--9----9---13---14----14-14-14-14-14--|
D|--11---9---14---16----16-16-16-16-16--| 
A|--11---7---X----17----17-17-17-17-17--|
E|--9--------12-------------------------|


Chorus:

"i feel, you're pain.................over and over again"         

    C#m      E     C#m      E   
e|-------------------------------X------------------------|
B|--5--5---9-9-9---5--5---9-9-9--X------------------------|
G|--6--6---9-9-9---6--6---9-9-9--X------------------------|
D|--6--6---9-7-7---6--6---9-7-7--X------------------------|
A|--4--4---7-7-7---4--4---7-7-7--X------------------------|
E|-------------------------------X------------------------|

"find, somebody close..."
      C#m       E       C#m       E       C#m       E       C#m       E
e|--4--4--4--7--7--7--4--4--4--7--7--7--4--4--4--7--7--7--4--4--4--7--7--7--|
B|--5--5--5--9--9--9--5--5--5--9--9--9--5--5--5--9--9--9--5--5--5--9--9--9--|
G|--6--6--6--9--9--9--6--6--6--9--9--9--6--6--6--9--9--9--6--6--6--9--9--9--|
D|--6--6--6--9--9--9--6--6--6--9--9--9--6--6--6--9--9--9--6--6--6--9--9--9--|
A|--4--4--4--7--7--7--4--4--4--7--7--7--4--4--4--7--7--7--4--4--4--7--7--7--|
E|--------------------------------------------------------------------------|
       E   C#m   D      C#m
e|-----7----4----5------4--4--|
B|-----9----5----7------5--5--|
G|-----9----6----7------6--6--|
D|-----9----6----7------6--6--|
A|-----7----4----4------4--4--|
E|----------------------------|
"follow your heart, follow your heart. I don't not love you 
      C#m       E       C#m       E       C#m       E       C#m       E
e|--4--4--4--7--7--7--4--4--4--7--7--7--4--4--4--7--7--7--4--4--4--7--7--7--|
B|--5--5--5--9--9--9--5--5--5--9--9--9--5--5--5--9--9--9--5--5--5--9--9--9--|
G|--6--6--6--9--9--9--6--6--6--9--9--9--6--6--6--9--9--9--6--6--6--9--9--9--|
D|--6--6--6--9--9--9--6--6--6--9--9--9--6--6--6--9--9--9--6--6--6--9--9--9--|
A|--4--4--4--7--7--7--4--4--4--7--7--7--4--4--4--7--7--7--4--4--4--7--7--7--|
E|--------------------------------------------------------------------------|
       E   C#m   D      C#m
e|-----7----4----5------4--4--|
B|-----9----5----7------5--5--|
G|-----9----6----7------6--6--|
D|-----9----6----7------6--6--|
A|-----7----4----4------4--4--|
E|----------------------------|


"do what you want, do what you do.       i don't not love you

      C#m       E       C#m       E       C#m       E       C#m       E
e|--4--4--4--7--7--7--4--4--4--7--7--7--4--4--4--7--7--7--4--4--4--7--7--7--|
B|--5--5--5--9--9--9--5--5--5--9--9--9--5--5--5--9--9--9--5--5--5--9--9--9--|
G|--6--6--6--9--9--9--6--6--6--9--9--9--6--6--6--9--9--9--6--6--6--9--9--9--|
D|--6--6--6--9--9--9--6--6--6--9--9--9--6--6--6--9--9--9--6--6--6--9--9--9--|
A|--4--4--4--7--7--7--4--4--4--7--7--7--4--4--4--7--7--7--4--4--4--7--7--7--|
E|--------------------------------------------------------------------------|
       E   C#m   D     C#m
e|-----7----4----5------4----|
B|-----9----5----7------5----|
G|-----9----6----7------6----|
D|-----9----6----7------6----|
A|-----7----4----4------4----|
E|---------------------------|

i cant seem to get the rest but will try... 
if you have anything to say then email me at 
TheWombats76243@hotmail.co.uk
or post a comment 
i hope this tab was correct or close to it 
comments
We did not receive enough feedback on this tab! Please rate:
print report bad tab
1 2 3 4 5
1 comment total.
0 reply
ALBERT1994 wrote on November 1 2011, 04:15 pm

heyy dude, its good to see people finally putting up tabs for flashguns. i figured the song out myself and couldnt be asked to write it all out, the tabs almost 100% correct but it has more variations... if you watch the acoustic version of 'i dont not love you' you should be able to pick them up by his chord shapes - i would post them to you myself but im a lazy bastard

figured out racing race, no games just sport and passions of a kind but dont know 'no point hanging around' so if you know would ya pass it on? thanks and keep up the good tabs ^ ^

I want to post or [tab]
guest
You may want to rate the tab now too:
select rating
Please do not post tabs as comments. Select "correction" instead!