Oops, an error
Loading. Please wait.

Racing Race Tab

2,086 views 9 this week
no commentswrite comment
1 2 3 4 5
2 more votes to show rating
add to favorites
launch autoscroll
font size
0
reset
how to read this tab
guitar tuner
Autoscroll
slow
fast
+/-
esc
set tempo
stop
Help us to improve Ultimate-Guitar.com Take our survey!
×
Author
Difficulty
Tuning
intermediate
D G C F A D
This is my first ever tab and I only learnt it by ear, so feel free to comment or
correct if you think any part is wrong.
For some reason I haven't seen the tab or lyrics to this song anywhere, even
though it's an amazing tune.

Oh and here's a link to a tutorial video for the song I made on YouTube:
http://www.youtube.com/watch?v=h-vQ-ai7PvI

Tuning: Open Dm (DADFAD)


INTRO

D|--<12>----<7>----<5>--|
A|--<12>----<7>----<5>--|
D|--<12>----<7>----<5>--|
F|--<12>----<7>----<5>--|
A|--<12>----<7>----<5>--|
D|--<12>----<7>----<5>--|

D|-------------------------------------------|
A|-------------------------------------------|
D|-------------------------------------------|
F|----0-----3---3----------2----------5------|
A|------3s5---5--5-5-3-3-3--3-0-----7---7----|
D|--0---------------------------5-5------5p0-|

D|-----------------------------------------------|
A|-----------------------------------------------|
D|-----------------------------------------------|
F|----0-----3---3h5p3---------2------5-5-5s3-3p0-|
A|------3s5---5-------5-3-3-3---3-3--5-5-5s3-3p0-|
D|--0--------------------------------5-5-5s3-3p0-|

D|-------------------------------------------|
A|-------------------------------------------|
D|------------------------------------0------|
F|----0-----3---3----------2------ -5---5----|
A|------3s5---5--5-5-3-3-3--3-0---7-------7--|
D|--0---------------------------5------------|

D|-----------------------------------------------|
A|-----------------------------------------------|
D|-----------------------------------------------|
F|----0-----3---3h5p3---------2------5-5-5s3-3p0-|
A|------3s5---5-------5-3-3-3---3-3--5-5-5s3-3p0-|
D|--0--------------------------------5-5-5s3-3p0-|

PART 1

D|----0-0---0-         ---         ---|
A|----0-0---0-         -0-         -0-|
D|----0-0---0- [strum] -0- [strum] -0-|
F|----0-0---3-         -2-         -5-|
A|----0-3h5-5-         -3-         -7-|
D|--0-0-0---0-         -3-         -5-|


D|----0-0---0-         -0-----0--0         --------------------|
A|----0-0---0-         -0-----0--0         --------------------|
D|----0-0---0- [strum] -0-----0--0 [strum] --------------------|
F|----0-0---3-         -3h5h3-3--2         -5-5-5s3-3p0--------|
A|----0-3h5-5-         -5-----5--3         -5-5-5s3-3p0--------|
D|--0-0-0---0-         -0-----0--3         -5-5-5s3-3p0--------|       x2

PART 2

D|----0-0---0----0------0-0-----         ---|
A|----0-0---8s10-10b11--8-0---0-         -0-|
D|----0-7s9-0----0------0-9---0- [strum] -0-|
F|----0-0---0----0------0-0---2-         -5-|
A|----0-0---0----0------0-0---3-         -7-|
D|--0-0-0---0----0------0-0---3-         -5-|

D|----0-0---0----0------0-0-----         -------------------------|
A|----0-0---8s10-10b11--8-0---0-         -------------------------|
D|----0-7s9-0----0------0-9---0- [strum] -------------------------|
F|----0-0---0----0------0-0---2-         -5-5-5s3-3p0-------------|
A|----0-0---0----0------0-0---3-         -5-5-5s3-3p0-------------|
D|--0-0-0---0----0------0-0---3-         -5-5-5s3-3p0-------------|            x2

PART 3

D|----0-         ---         ---|
A|----0-         -0-         -0-|
D|----0- [strum] -0- [strum] -0-|
F|----0-         -2-         -5-|
A|----0-         -3-         -7-|
D|--0-0-         -3-         -5-|

D|----0-         ---         ----------------------|
A|----0-         -0-         ----------------------|
D|----0- [strum] -0- [strum] ----------------------|
F|----0-         -2-         -5-5-5s3-3p0----------|
A|----0-         -3-         -5-5-5s3-3p0----------|
D|--0-0-         -3-         -5-5-5s3-3p0----------|         x2

PART 4

D|----0-0---0-         ---         ---|
A|----0-0---0-         -0-         -0-|
D|----0-0---0- [strum] -0- [strum] -0-|
F|----0-0---3-         -2-         -5-|
A|----0-3h5-5-         -3-         -7-|
D|--0-0-0---0-         -3-         -5-|

D|----0-0---0-         -0-----0--0         --------------------|
A|----0-0---0-         -0-----0--0         --------------------|
D|----0-0---0- [strum] -0-----0--0 [strum] --------------------|
F|----0-0---3-         -3h5h3-3--2         -5-5-5s3-3p0--------|
A|----0-3h5-5-         -5-----5--3         -5-5-5s3-3p0--------|
D|--0-0-0---0-         -0-----0--3         -5-5-5s3-3p0--------|       x2

PART 5

D|--0-x-             -x-|
A|--0-x-             -x-|
D|--0-x- [strum] x7  -x-|
F|--0-x-             -x-|
A|--0-x-             -x-|
D|--0-x-             -x-|

PART 6

D|----0-         ---         ---|
A|----0-         -0-         -0-|
D|----0- [strum] -0- [strum] -0-|
F|----0-         -2-         -5-|
A|----0-         -3-         -7-|
D|--0-0-         -3-         -5-|

D|----0-         ---         ----------------------|
A|----0-         -0-         ----------------------|
D|----0- [strum] -0- [strum] ----------------------|
F|----0-         -2-         -5-5-5s3-3p0----------|
A|----0-         -3-         -5-5-5s3-3p0----------|
D|--0-0-         -3-         -5-5-5s3-3p0----------|         x2

PART 7

D|-------------------------------|
A|-------------------------------|
D|--12-12-11--7-9----12-12-7--12-|
F|--12-12-10--7-8----12-12-7--12-| [strum] x2
A|--12-12-12--7-8----12-12-7--12-|
D|--12-12-10--7-8----12-12-7--12-|

D|-------------------------------         -15-------|
A|-------------------------------         -15-------|
D|--12-12-11--7-9----12-12-7--12-         -15-------|
F|--12-12-10--7-8----12-12-7--12- [hold]  -15-------|
A|--12-12-12--7-8----12-12-7--12-         -15-------|
D|--12-12-10--7-8----12-12-7--12-         -15-15-14-|

PART 8

D|------------0-         -------------------------|
A|----------8-8-         -------------------------|
D|------7s9---9- [strum] -----7-------------7---7-|
F|----0-------0-         -------7-------------7-7-|  [strum]
A|--------------         ---8-----8-------8-----8-|
D|--0-0---------         -7---------7-7-8-------8-|

D|------------0-         -------------------------|
A|----------8-8-         -------------------------|
D|------7s9---9- [strum] -----7--------7--7--6-s7-|
F|----0-------0-         -------7------10-10-10s8-|
A|--------------         ---8-----8----10-10-10s8-|
D|--0-0---------         -7---------7--10-10-10-8-|

D|---------------------<12>--|
A|---------------------<12>--|
D|------7s9-9----------<12>--|
F|----0-----0-5-5s3-3--<12>--|
A|----------0-5-5s3-3--<12>--|
D|--0-0-----0-5-5s3-3--<12>--|

D|------------0-         -------------------------|
A|----------8-8-         -------------------------|
D|------7s9---9- [strum] -----7-------------7---7-|
F|----0-------0-         -------7-------------7-7-|  [strum]
A|--------------         ---8-----8-------8-----8-|
D|--0-0---------         -7---------7-7-8-------8-|

D|------------0-         -------------------------|
A|----------8-8-         -------------------------|
D|------7s9---9- [strum] -----7--------7--7--6-s7-|
F|----0-------0-         -------7------10-10-10s8-|
A|--------------         ---8-----8----10-10-10s8-|
D|--0-0---------         -7---------7--10-10-10-8-|

D|-----------------------------------------------|
A|-----------------------------------------------|
D|------7s9-9------------------------------------|
F|----0-----0-5-5s3-3------------<12>------------|
A|----------0-5-5s3-3-------<12>------<12>-------|
D|--0-0-----0-5-5s3-3--<12>----------------<12>--|

PART 9

D|-----------------------------------------------|
A|------------------5-------------------------5--|
D|-----<12>-11----7-5--------<12>-11-12p11--7-5--|
F|-----<12>-10----7-5--------<12>-10--------7-5--|
A|-----<12>-12----7-5--------<12>-12--------7-5--|
D|--<12>----10---7-------<12>-----10-------7-----|

D|------------------------------------------------|
A|------------------------------------------------|
D|------<12>-11-----------------------------------|
F|------<12>-10-------------------<12>------------|
A|------<12>-12-10s8---------<12>------<12>-------|
D|--<12>-----10---------<12>----------------<12>--|     x2

PART 10

D|-----------------------------------------------|
A|------------------5-------------------------5--|
D|-----<12>-11----7-5--------<12>-11-12p11--7-5--|
F|-----<12>-10----7-5--------<12>-10--------7-5--|
A|-----<12>-12----7-5--------<12>-12--------7-5--|
D|--<12>----10---7-------<12>-----10-------7-----|

D|--------------------------------<12>------------|
A|---------------------------<12>------<12>-------|
D|------<12>-11-----------------------------------|
F|------<12>-10---------<12>----------------<12>--|
A|------<12>-12-10s8------------------------------|
D|--<12>-----10-----------------------------------|       x2
Suggest correction
Give kudos to tab author, rate the tab!
1 2 3 4 5
comments
print report bad tab
guest
You may want to rate the tab now too:
select rating
Wanna post a correction for this tab? Suggest correction