Oops, an error
Loading. Please wait.

Ferris Bueller Tab

58 views 9 this week
no commentswrite comment
1 2 3 4 5
3 more votes to show rating
add to favorites
launch autoscroll
font size
0
reset
how to read this tab
guitar tuner
Autoscroll
slow
fast
+/-
esc
set tempo
stop
Help us to improve Ultimate-Guitar.com Take our survey!
×
Author
Difficulty
Capo
intermediate
3rd fret
[Intro/ Verse 1]
e|----------------------|
B|------------1--0--0---|
G|5--5--4--5--0--0--0---|
D|5--5--5--2--3--5--5---|x4
A|0--0--0--0--0--0--0---|
E|----------------------|

[Pre-Chorus]
[Outro]
e|-----------------------|----|-------------------------|
B|-----------------------|    |-------------------------|
G|-----------------------|    |-------------------------|
D|3--2--3--2--3--2--0----| x3 |-3--2--3--2--3--2--3--2--|
A|---------------------3-|    |-------------------------|
E|-----------------------|----|-------------------------|

[Chorus] (repeated 4x)
e|-----------------------------------------------|
B|---1-------------1-----1--3--1--3--0--1--0-----|
G|0-------0--0--0-----0-----------------------0--|
D|-----------0-----------------------------------|
A|-----------------------------------------------|
E|-----------------------------------------------|

e|-----------------------------------1--0--------|
B|---1-------------1-----1--3--1--3--------3--1--|
G|0-------0--0--0-----0--------------------------|
D|-----------0-----------------------------------|
A|-----------------------------------------------|
E|-----------------------------------------------|

[Verse 2]
e|---------------------------------------|
B|------1-----------1-----------1--------|
G|---0-----0-----0-----0-----0-----0-----|
D|3-----------3-----------2-----------2--|
A|---------------------------------------|
E|---------------------------------------|

e|-------------------|
B|---1-----1------1--|
G|0--0--0--0--0---0--|
D|3-----2-----3------|
A|0-----0-----0------|
E|-------------------|

[Outro]
e|-----------------------|----|-------------------------|
B|-----------------------|    |-------------------------|
G|-----------------------|    |-------------------------|
D|3--2--3--2--3--2--0----| x3 |-3--2--3--2--3--2--3--2--|
A|---------------------3-|    |-------------------------|
E|-----------------------|----|-------------------------|
Suggest correction
Give kudos to tab author, rate the tab!
1 2 3 4 5
comments
print report bad tab
guest
You may want to rate the tab now too:
select rating
Wanna post a correction for this tab? Suggest correction