Oops, an error
Loading. Please wait.

I Exist I Exist I Exist tab

version 1
version 1

Whole song

3,535 views 69 this week
no commentswrite comment
1 2 3 4 5
x 10
add to favorites
×
Save as Personal and add changes to this tab that will be seen only by you. Learn more ›
×
You can save this tab as Personal to edit and correct it or add notes. All changes will be seen only by you. Learn more »
launch autoscroll
font size
0
reset
how to read this tab
guitar tuner
edit
Autoscroll
slow
fast
+/-
esc
set tempo
stop
Difficulty
Tabbed by Dan


[Intro]


e|--------------------------|----------------------------|
B|---------0-----0----0-----|------0----0-----0----------|
G|-------0---0-----0----0---|----0---0----0----0---------|x2
D|-------------0-----0----0-|---------2-----2----2-------|
A|--------------------------|--3-------------------------|
E|---3----------------------|----------------------------|


[Verse]

  
e|--------------------------|----------------------------|
B|---------0-----0----0-----|------0----0-----0----------|
G|-------0---0-----0----0---|----0---0----0----0---------|
D|-------------0-----0----0-|---------2-----2----2-------|
A|--------------------------|--3-------------------------|
E|---3----------------------|----------------------------|

e|-----------------|---------------|
B|---------0-------|-------0-------|
G|-------0---0-----|-----0---0-----|
D|-------------0---|-----------2---|
A|-----------------|--3------------|
E|---3-------------|---------------|

e|--------------------------|----------------------------|
B|---------0-----0----0-----|------0----0-----0----------|
G|-------0---0-----0----0---|----0---0----0----0---------|
D|-------------0-----0----0-|---------2-----2----2-------|
A|--------------------------|--3-------------------------|
E|---3----------------------|----------------------------|

e|--------------------------|
B|---------0-----0----0-----|
G|-------0---0-----0----0---|
D|-------------0-----0----0-|
A|--------------------------|
E|---3----------------------|

e|-----------------|---------------|
B|---------0-------|-------0-------|
G|-------0---0-----|-----0---0-----|
D|-------------0---|-----------2---|
A|-----------------|--3------------|
E|---3-------------|---------------|

e|--------------------------|----------------------------|
B|---------0-----0----0-----|------0----0-----0----------|
G|-------0---0-----0----0---|----0---0----0----0---------|
D|-------------0-----0----0-|---------2-----2----2-------|
A|--------------------------|--3-------------------------|
E|---3----------------------|----------------------------|

e|-----------------|---------------|
B|---------0-------|-------0-------|
G|-------0---0-----|-----0---0-----|
D|-------------0---|-----------2---|
A|-----------------|--3------------|
E|---3-------------|---------------|

e|--------------------------|----------------------------|
B|---------0-----0----0-----|------0----0-----0----------|
G|-------0---0-----0----0---|----0---0----0----0---------|
D|-------------0-----0----0-|---------2-----2----2-------|
A|--------------------------|--3-------------------------|
E|---3----------------------|----------------------------|

e|-----------------|---------------|
B|---------0-------|-------0-------|
G|-------0---0-----|-----0---0-----|
D|-------------0---|-----------2---|
A|-----------------|--3------------|
E|---3-------------|---------------|


[Chorus]

(Use the same pattern as above with I think may be this playing faintly in the back ground)

e|------7-----7----8----7-------|
B|----8---8-----8----8----8-----|
G|--7-------7-----7----7----7---|
D|------------------------------|
A|------------------------------|
E|------------------------------|


[Outro]

(Fade out)

e|--------------------------|----------------------------|
B|---------0-----0----0-----|------0----0-----0----------|
G|-------0---0-----0----0---|----0---0----0----0---------|x2
D|-------------0-----0----0-|---------2-----2----2-------|
A|--------------------------|--3-------------------------|
E|---3----------------------|----------------------------|


[Lyrics]

"baby please, it's the way you speak
forming words so easily
and i think of the way you think
it keeps me from falling asleep
in that grave i call a bed
until you called me up and said

"i haven't stopped crying
my father's been drinking
i need a place to stay
i don't want to be here
he's saying the words that
he promised he would never say

that liquid he consumes
makes him speak the truth"

and i said no, its not that at all
its that bottles of lies for a troubled heart
its standing on the edge of a mountain top
screaming anything he wants
like, "look at me, because i exist"

i remember the way you shook
its a shame that we're not soul mates
because if i didn't know better
i'd say this feels pretty good
how could i be scared?
when i stretch and feel that you're there
so shut your mouth
because these words will speak themselves
i can feel them in these blankets
and they're surrounding your figure
embraced in the quilts
and i cant help but think
you're my missing puzzle piece

i wake up in the hallway, i'm looking for sunlight
with rays that will cure me of the pain that keeps my lungs tight
ignoring the voices and feelings that tell me
to get out of this house
i cant make them stop
i'm just like my mom

and you said no, these demons will fall
you're so precious to us all
and i said i cant do this alone
i still need you to hold
So don't let go, because I'm afraid"

            
            
Suggest correction
Creating personal tab
Creating personal tab
You can edit any tab online and save it as your Personal.

You can edit, replace or remove any tab part or add personal notes – all changes will be seen only by you.

Personal tabs can be accessed anytime from any device, even offline.
Learn more »
comments
print report bad tab
guest
Wanna post a correction for this tab? Suggest correction