Oops, an error
Loading. Please wait.

Nothing Good Comes From Being Gone tab

520 views 30 this week
no commentswrite comment
1 2 3 4 5
2 more votes to show rating
add to favorites
×
Save as Personal and add changes to this tab that will be seen only by you. Learn more ›
×
You can save this tab as Personal to edit and correct it or add notes. All changes will be seen only by you. Learn more »
launch autoscroll
font size
0
reset
how to read this tab
guitar tuner
edit
Autoscroll
slow
fast
+/-
esc
set tempo
stop
Author
Difficulty
About this tab version
Contains both the guitar and keyboard parts as tabs. Was this info helpful? Yes No
[Throughout entire song]
e|--0-------0---0-|--0-------0---0-|--0---4---0---0-|--0---2---0---0-|
B|------0---------|------0---------|----------------|----------------|
G|----------------|----------------|----------------|----------------|
D|----------------|----------------|----------------|----------------|
A|0---0---0---0---|0---0---0---0---|4---4---4---4---|4---4---4---4---|
E|----------------|----------------|----------------|----------------|

Keyboard section that plays over the guitar. Can also be played on guitar so I figured I might as well tab it.
It starts at the line "Cause the STARTING line is atop a mountain~" with the word "starting", coincidentally.
e|0---2---4---0---|4---2---0---2---|0---2---4---0---|4---2---0---2---|
B|----------------|----------------|----------------|----------------|
G|----------------|----------------|----------------|----------------| x1
D|----------------|----------------|----------------|----------------|
A|----------------|----------------|----------------|----------------|
E|----------------|----------------|----------------|----------------|

e|0---7---4---0---|5---4---2---4---|0---2---4---0---|4---2---0---2---|
B|----------------|----------------|----------------|----------------|
G|----------------|----------------|----------------|----------------| repeat untill the song ends
D|----------------|----------------|----------------|----------------|
A|----------------|----------------|----------------|----------------|
E|----------------|----------------|----------------|----------------|

[Lyrics]
Did you escape
From the feelings that you wanted to replace
With anything you thought could fill the space
I hope you found the quietness you want,
'Cause nothing good comes from being gone.

So keep your eyes on anything
as long as it makes you happy.
Do you feel like a big girl?
Do you feel like a big girl now?
Now that you're out in the big world
And I still can't leave the house.

'Cause the starting line is atop a mountain
that I can't climb with these broken arms.
I liked you, more than anything that I wanted to be like you
with the strength inside to make it to the top,

'Cause nothing good comes from being gone.
I'm willing to admit it's all my fault.
I will trade all of my pride for what I've lost.
I don't wanna lose this battle with my thoughts.
Nothing good comes from being gone...
Nothing good comes from being gone...
Nothing good comes from being gone...

Hope this helps people who like this song as much as I do. Have fun!

            
            
Suggest correction
Creating personal tab
Creating personal tab
You can edit any tab online and save it as your Personal.

You can edit, replace or remove any tab part or add personal notes – all changes will be seen only by you.

Personal tabs can be accessed anytime from any device, even offline.
Learn more »
Give kudos to tab author, rate the tab!
1 2 3 4 5
comments
print report bad tab
guest
You may want to rate the tab now too:
select rating
Wanna post a correction for this tab? Suggest correction