Oops, an error
Loading. Please wait.

Sleep tab

version 2
version 2

Whole song

256 views 6 this week
1 commentread comment
1 2 3 4 5
x 4
add to favorites
×
Save as Personal and add changes to this tab that will be seen only by you. Learn more ›
×
You can save this tab as Personal to edit and correct it or add notes. All changes will be seen only by you. Learn more »
launch autoscroll
font size
0
reset
how to read this tab
guitar tuner
edit
Autoscroll
slow
fast
+/-
esc
set tempo
stop
E Standard (Capo on 2nd Fret)

/ = Slide

Quick note: Some bars have a "Note #x" above them. At the bottom of the page you can find a note pertaining
to that specific section and will offer some info around the way the section is played. I put the lyrics of
section below each bar. Also, virtually every bar on this song repeats once thoughout the song so bear with
me on the "repeat once"'s.

Also the x's are not necessarily ghost notes here. Tap the side of the your acoustic to produce a percussive
note instead.

[Intro] - Note #1
   Gtr I
e||-------------------------------------|------------------------------------|
B||-------------------------------------|------------------------------------|
G||--0---0-0-0-0-0-0-0---0-0-0-0-0-0-0--|--0-0-0-0-0-0-0-0-0-0-0-0-0-0-0-0---| (Repeat once)
D||--0---0-0-0-0-0-0-0---0-0-0-0-0-0-0--|--4-5-4-0-4-5-4-0-4-5-4-0-4-5-4-0---|
A||--3---3-3-3-3-3-3/5---5-5-5-5-5-5-5--|--5-5-5-5-5-5-5-5-5-5-5-5-5-5-5-5---|
E||-------------------------------------|------------------------------------|


[Verse] - Note #2
   Gtr I
e||-------------------------------------|------------------------------------|
B||--0----------------------------------|--0---------------------------------|
G||--0-----x-x-----x-x-----x-x----x-----|--0-----x-x-----x-x-----x-x----x----| (Repeat once)
D||--0-----x-x-----x-x-----x-x----x-----|--0-----x-x-----x-x-----x-x----x----|
A||--3----------------------------------|--2---------------------------------|
E||--3----------------------------------|--3---------------------------------|
 ||
 ||Gtr II
e||-------------------------------------|------------------------------------|
B||-------------------------------------|------------------------------------|
G||-------------------------------------|------------------------------------| (Repeat once)
D||--0----------------------------------|--0---------------------------------|
A||--3----------------------------------|--2---------------------------------|
E||--3----------------------------------|--3---------------------------------|

Lyrics: I lose control of my heart, I can't keep up without losing my breath, it's been this way from the
start, I need rest.


[Chorus]
   Gtr I
e||-------------------------------------|------------------------------------|
B||--0----------------------------------|--0---------------------------------|
G||--0-----x-x-----x-x-----x-x----x-----|--0-----x-x-----x-x-----x-x----x----| (Repeat once)
D||--0-----x-x-----x-x-----x-x----x-----|--0-----x-x-----x-x-----x-x----x----|
A||--3----------------------------------|--2---------------------------------|
E||--3----------------------------------|--3---------------------------------|
 ||
 ||Gtr II
e||-------------------------------------|------------------------------------|
B||-------------------------------------|------------------------------------|
G||-------------------------------------|------------------------------------| (Repeat once)
D||--0----------------------------------|--0---------------------------------|
A||--3----------------------------------|--2---------------------------------|
E||--3----------------------------------|--3---------------------------------|

Lyrics: I'll go to sleep at a decent time when I find something worth waking up for, I'll go to sleep at a
decent time when I find something worth waking up for.


[Verse]
   Gtr I
e||-------------------------------------|------------------------------------|
B||-------------------------------------|------------------------------------|
G||-------------------------------------|------------------------------------| (Repeat once)
D||--0---0-0-0-0-0-0-0---0-0-0-0-0-0-0--|--4-5-4-0-4-5-4-0-4-5-4-0-4-5-4-0---|
A||-/3---3-3-3-3-3-3/5---5-5-5-5-5-5-5--|--5-5-5-5-5-5-5-5-5-5-5-5-5-5-5-5---|
E||-/3---3-3-3-3-3-3/5---5-5-5-5-5-5-5--|--5-5-5-5-5-5-5-5-5-5-5-5-5-5-5-5---|
 ||
 ||Gtr II
e||-------------------------------------|------------------------------------|
B||-------------------------------------|------------------------------------|
G||-------------------------------------|------------------------------------| (Repeat once)
D||--0---0-0-0-0-0-0-0---0-0-0-0-0-0-0--|--4-5-4-0-4-5-4-0-4-5-4-0-4-5-4-0---|
A||-/3---3-3-3-3-3-3/5---5-5-5-5-5-5-5--|--5-5-5-5-5-5-5-5-5-5-5-5-5-5-5-5---|
E||-------------------------------------|------------------------------------|

- Note #3
   Gtr I
e||------------------------------------|-----------------------------------|
B||------------------------------------|-----------------------------------|
G||------------------------------------|-----------------------------------| (Repeat once)
D||------------------------------------|-----------------------------------|
A||--3-3-3-3-3-3-3-2-2-2-2-2-2-2-2-2---|--3-3-3-3-3-3-3-2-2-2-2-2-2-2-2-2--|
E||--3-3-3-3-3-3-3-3-3-3-3-3-3-3-3-3---|--3-3-3-3-3-3-3-3-3-3-3-3-3-3-3-3--|
 ||
 ||Gtr II
e||------------------------------------|-----------------------------------|
B||------------------------------------|-----------------------------------|
G||--0-------------0-------------------|-----------------------------------| (Repeat once)
D||--0-------------0-------------------|--0--------------------------------|
A||--3-------------2-------------------|--3-------------2------------------|
E||------------------------------------|-----------------------------------|

Lyrics: The days are long when I keep checking my phone, I see you haven't called at all.


[Chorus]
Note #3
e||-------------------------------------|------------------------------------|
B||-------------------------------------|------------------------------------|
G||---0-------0-----0---0-----0---0-----|---0-------0-----0---0-----0---0----| (Repeat once)
D||---0-------0-----0---0-----0---0-----|---0-------0-----0---0-----0---0----|
A||---3-3-3-3-3-3-3-2-2-2-2-2-2-2-2-2---|---3-3-3-3-3-3-3-2-2-2-2-2-2-2-2-2--|
E||---3-3-3-3-3-3-3-3-3-3-3-3-3-3-3-3---|---3-3-3-3-3-3-3-3-3-3-3-3-3-3-3-3--|
 ||
 ||Gtr II
e||-------------------------------------|------------------------------------|
B||-------------------------------------|------------------------------------|
G||---0-------------0-------------------|------------------------------------| (Repeat once)
D||---0-------------0-------------------|---0--------------------------------|
A||---3-------------2-------------------|---3-------------2------------------|
E||-------------------------------------|------------------------------------|

Lyrics: This is where I die, oh, I thought I was the best part of your life, oh, I thought I was the only one
inside, now I'm pretty sure that I, I was wrong.


[Bridge]
   Gtr I
e||-------------------------------------|------------------------------------|
B||-------------------------------------|------------------------------------|
G||---0---0-0-0-0-0-0-0--0-0-0-0-0-0-0--|--0-0-0-0-0-0-0-0-0-0-0-0-0-0-0-0---| (Repeat once)
D||---0---0-0-0-0-0-0-0--0-0-0-0-0-0-0--|--4-5-4-0-4-5-4-0-4-5-4-0-4-5-4-0---|
A||---3---3-3-3-3-3-3/5--5-5-5-5-5-5-5--|--5-5-5-5-5-5-5-5-5-5-5-5-5-5-5-5---|
E||---3---3-3-3-3-3-3/5--5-5-5-5-5-5-5--|--5-5-5-5-5-5-5-5-5-5-5-5-5-5-5-5---|
 ||
 ||Gtr II
e||-------------------------------------|------------------------------------|
B||-------------------------------------|------------------------------------|
G||-------------------------------------|------------------------------------| (Repeat once)
D||---0---0-0-0-0-0-0-0--0-0-0-0-0-0-0--|--4-5-4-0-4-5-4-0-4-5-4-0-4-5-4-0---|
A||--/3---3-3-3-3-3-3/5--5-5-5-5-5-5-5--|--5-5-5-5-5-5-5-5-5-5-5-5-5-5-5-5---|
E||-------------------------------------|------------------------------------|

[Outro]
   Gtr I
e||-------------------------------------|------------------------------------|
B||-------------------------------------|------------------------------------|
G||---0-------0-----0---------0---0-----|---0-------0-----0---------0---0----| (Repeat once)
D||---5---5-5-5-5-5-4---4-4-4-4-4-4-4---|---5---5-5-5-5-5-4---4-4-4-4-4-4-4--|
A||---5---5-5-5-5-5-5---5-5-5-5-5-5-5---|---5---5-5-5-5-5-5---5-5-5-5-5-5-5--|
E||-------------------------------------|------------------------------------|
 ||
 ||Gtr II
e||-------------------------------------|------------------------------------|
B||---0-----0-----0-----0-----0---------|---0-----0-----0-----0-----0--------|
G||-----0-----0-----5-----5-------0-----|-----0-----0-----5-----5-------0----| (Repeat once)
D||-------------------------------------|------------------------------------|
A||-------------------------------------|------------------------------------|
E||-------------------------------------|------------------------------------|

   Gtr I
e||---0-------0-----0---------0---0-----|---0-------0-----0---------0---0----|
B||---0-------0-----0---------0---0-----|---0-------0-----0---------0---0----|
G||---0---0-0-0-0-0-0---0-0-0-0-0-0-0---|---0---0-0-0-0-0-0---0-0-0-0-0-0-0--| (Repeat once)
D||---5---5-5-5-5-5-4---4-4-4-4-4-4-4---|---5---5-5-5-5-5-4---4-4-4-4-4-4-4--|
A||---5---5-5-5-5-5-5---5-5-5-5-5-5-5---|---5---5-5-5-5-5-5---5-5-5-5-5-5-5--|
E||-------------------------------------|------------------------------------|
 ||
 ||Gtr II
e||-------------------------------------|------------------------------------|
B||---0-----0-----0-----0-----0---------|---0-----0-----0-----0-----0--------|
G||-----0-----0-----5-----5-------0-----|-----0-----0-----5-----5-------0----| (Repeat once)
D||-------------------------------------|------------------------------------|
A||-------------------------------------|------------------------------------|
E||-------------------------------------|------------------------------------|

   Gtr I
e||---0---------------------------------|-------------------------------------|
B||---0---------------------------------|-------------------------------------|
G||---0---------------------------------|-------------------------------------|
D||---5---------------------------------|--0---0-0-0-0-0-0-0---0-0-0-0-0-0-0--|
A||---5---------------------------------|--3---3-3-3-3-3-3/5---5-5-5-5-5-5-5--|
E||-------------------------------------|-------------------------------------|
 ||
 ||Gtr II
e||-------------------------------------|------------------------------------|
B||---0-----0-----0-----0-----0---------|---0-----0-----0-----0-----0--------|
G||-----0-----0-----5-----5-------0-----|-----0-----0-----5-----5-------0----| (Repeat once)
D||-------------------------------------|------------------------------------|
A||-------------------------------------|------------------------------------|
E||-------------------------------------|------------------------------------|

   Gtr I
e||-------------------------------------|------------------------------------|
B||-------------------------------------|------------------------------------|
G||-------------------------------------|------------------------------------|
D||--4-5-4---4-5-4---4-5-4---4-5-4------|------------------------------------|
A||--------5-------5-------5-------5----|---3--------------------------------|
E||-------------------------------------|------------------------------------|
 ||
 ||Gtr II
e||-------------------------------------|------------------------------------|
B||---0-----0-----0-----0-----0---------|---0-----0-----0-----0-----0--------|
G||-----0-----0-----5-----5-------0-----|-----0-----0-----5-----5-------0----|
D||-------------------------------------|------------------------------------|
A||-------------------------------------|------------------------------------|
E||-------------------------------------|------------------------------------|

   Gtr II
e||-------------------------------------|------------------------------------|
B||---0-----0-----0-----0-----0---------|---0-----0-----0-----0-----0--------|
G||-----0-----0-----5-----5-------0-----|-----0-----0-----5-----5-------0----|
D||-------------------------------------|------------------------------------|
A||-------------------------------------|------------------------------------|
E||-------------------------------------|------------------------------------|

 ||Gtr II
e||-------------------------------------|------------------------------------|
B||---0-----0-----0---------------------|------------------------------------|
G||-----0-----0-----0-------------------|------------------------------------|
D||-------------------------------------|------------------------------------|
A||-------------------------------------|------------------------------------|
E||-------------------------------------|------------------------------------|


End

Start "If You Love Me, Come Clean"


Notes:

Note #1:
- Take note of the dynamics when playing this section, some notes will be played softer and others louder.

- Along with the dynamics, there is also a subtle open B string being played throughout the section. The open
B string is not played with every chord but is prevalent at some points in this section.

Note #2:
- The x's here are not ghost notes; instead tap the side of your guitar to produce a bass-y percussive note.

Note #3:
- This is a long string of eigth notes I suppose or just sixteenth notes in it's cut time. What makes it
sound the way it is is the dynamics with every note. Listen to the record and listen to each note. It's subtle
but every other note is more pronounced than each other. This is a hard one to get down and really requires
you to listen.

Note #4:
- This one is a bit harder to hear but basically the open D and G strings are played ever so faintly, so
don't put so much emphasis on them.

Also I highly recommend using your fingernail to strum c:
Suggest correction
Creating personal tab
Creating personal tab
You can edit any tab online and save it as your Personal.

You can edit, replace or remove any tab part or add personal notes – all changes will be seen only by you.

Personal tabs can be accessed anytime from any device, even offline.
Learn more »
comments
print report bad tab
1 comment total.
0 reply
_shelby2122 24 May 09, 2017 06:09 PM

wow this is perfect! thank you!!!

guest
You may want to rate the tab now too:
select rating
Wanna post a correction for this tab? Suggest correction