Oops, an error
Loading. Please wait.

Foggy Mountain Breakdown Tab

version 1
version 1

Whole song

20,236 views 3 this week
no commentswrite comment
1 2 3 4 5
accurate
x 3
add to favorites
launch autoscroll
font size
0
reset
how to read this tab
guitar tuner
Tab Pro tools
  • play this tab
  • loop segment
  • change instrument
  • show fretboard
  • metronome
×
Best way to learn
"Foggy Mountain Breakdown"
Autoscroll
slow
fast
+/-
esc
set tempo
stop
Contributor
Difficulty
intermediate
----------------------------------------------------------------------------
                 Foggy Mountain Breakdown - Flatt & Scruggs
----------------------------------------------------------------------------

Tabbed by: tonyrice86
Email: nathanchance86@yahoo.com

Tuning: Standard

e-------2/3-3-3-3-3-3--2/3-3-3-3-3-3--2/3-3-3----------|
B-0-1-2-2/3-3-3-3-3-3--2/3-3-3-3-3-3--2/3-3-3--1-------|
G------------------------------------------------2/3-0-|
D------------------------------------------------------|
A------------------------------------------------------|
E------------------------------------------------------|

e------------------------------------------------------------|
B------------------------------------------------------------|
G-0-0-0-0----------0---0-2-4-2-4-5-4-2-0-2-4-2-0-4-2-0---2-0-|
D---------0-2--2-4---4---------------------------------4-----|
A------------------------------------------------------------|
E------------------------------------------------------------|

e---------------------------------------------------------------0-2-3-0-|
B-------------------------------------------------------------3---------|
G-0-0-0-----------------0---0-2-4-2-0-2-4-2-0-4-2-0---2-0-2-4-----------|
D-------0-2--2-2-2--2-4---4-------------------------4-------------------|
A-----------------------------------------------------------------------|
E-----------------------------------------------------------------------|

e-2-0---2-0-----0-----------------------------------|
B-----3-----3-1---3-1-0-3-1-0---1-0-1-2-3-0---------|
G-----------------------------2-------------0-----0-|
D---------------------------------------------2-0---|
A---------------------------------------------------|
E---------------------------------------------------|


Chords are G, Em, G, Em, G, D, G


| /  slide up
| \  slide down
| h  hammer-on
| p  pull-off
| ~  vibrato
| +  harmonic
| x  Mute note
===============================================================================
comments
We did not receive enough feedback on this tab! Please rate:
print report bad tab
1 2 3 4 5
I want to post or [tab]
guest
You may want to rate the tab now too:
select rating
Please do not post tabs as comments. Select "correction" instead!