Oops, an error
Loading. Please wait.

Payback bass

version 3
version 3

Whole song

Interactive

by Flaw
693 views 6 this week
no commentswrite comment
1 2 3 4 5
3 more votes to show rating
add to favorites
×
Save as Personal and add changes to this tab that will be seen only by you. Learn more ›
×
You can save this tab as Personal to edit and correct it or add notes. All changes will be seen only by you. Learn more »
launch autoscroll
font size
0
reset
guitar tuner
edit
Autoscroll
slow
fast
+/-
esc
set tempo
stop
Author
#-----------------------------------PLEASE NOTE------------------------------------#
#  This file is the author's own work and represents their interpretation of the   #
#  song. The owner of this website has not reviewed the contents of this file. If  #
#  you feel that the content of this file may be violating copyright law, you may  #
#  not use the information displayed here in any way.                              #
#----------------------------------------------------------------------------------#


artist-flaw
song-payback
album-through the eyes
tuning-standard 5(b,e,a,d,g)
legend-h-hammer on p-pull off *-stop string ~-vibrato
note: i have played this along with the cd a million times so
it should be fairly accurate
comment: para sa lahat ng tambay dyan sa talon-talon,zamboanga city! mga tambay sa 
sa lahat ng creaknot kmusta na kyo!!!!wahahaha

intro
g---------------------------------------------|
d-------999-------------------999/10-10-10-10-|
a----888---88p0h7p0--------888----------------|
e-777--------------h8p0h777-------------------|
b---------------------------------------------|

g---------------------|
d-------999-9h10p9h10-|
a----888--------------|
e-777-----------------|
b---------------------|

g-------------------------------------|
d-------999-------------------999-10--|
a----888---88p0h7p0--------888--------|
e-777--------------h8p0h777-----------|
b-------------------------------------|

chorus
g-----------------------------------|
d-----------------------------------|
a-----------------------------------|x4
e-----------------------------------|
b--0~0*-0*000*-00*-0~0*-0*-0*-0~6-5-|

verse
g---------------------------------------------|
d-------999-------------------999-10-10-10-10-|
a----888---88p0h7p0--------888----------------|x3
e-777--------------h8o0h777-------------------|
b---------------------------------------------|

g----------------------|
d-------999-9h10p9h10--|
a----888---------------|
e-777------------------|
b----------------------|

chorus
verse
chorus
pause for about 2 sec.

bridge
g---------------|
d---------------|
a---------------|x3
e---------------|
b-00*-0*-0*-00--|

chorus
then
g-----------|
d---9~------|
a--8---8-7~-|x2
e-7---7-----|
b-----------|

chorus til end of song and end on open b

            
            
Suggest correction
Creating personal tab
Creating personal tab
You can edit any tab online and save it as your Personal.

You can edit, replace or remove any tab part or add personal notes – all changes will be seen only by you.

Personal tabs can be accessed anytime from any device, even offline.
Learn more »
Give kudos to tab author, rate the tab!
1 2 3 4 5
comments
print report bad tab
guest
You may want to rate the tab now too:
select rating
Wanna post a correction for this tab? Suggest correction