Oops, an error
Loading. Please wait.

Payback Bass Tab

version 5
version 5

Interactive

by Flaw
156 views 1 this week
no commentswrite comment
1 2 3 4 5
please rate
add to favorites
launch autoscroll
font size
0
reset
guitar tuner
Tab Pro tools
  • play this tab
  • loop segment
  • change instrument
  • show fretboard
  • metronome
Autoscroll
slow
fast
+/-
esc
set tempo
stop
Contributor
       Payback                                     


                                                                            Flaw
Bass 5 Strings



                                                                                
G||------------------||---------------------------|----------------------------|
D||------------------||*--------------------9--9--|--9-------------------------|
A||------------------||------------8--8--8--------|-----8--8--8----------------|
E||------------------||*--7--7--7-----------------|--------------10--8--7------|
B||------------------||---------------------------|------------------------10--|


                                                                                
--------------------------|----------------------------||----------------------|
--------------------9--9--|--9----------9/-10--9/-10--*||----------------------|
-----------8--8--8--------|-----8----------------------||----------------------|
--7--7--7-----------------|----------9----------------*||--7----7----7----7----|
--------------------------|----------------------------||----------------------|


                                                                           
----------------------|----------------------|----------------------------|
----------------------|----------------------|----------------------------|
----------------------|----------------------|----------------------------|
--7----7----7----7----|--7----7----7----7----|--7----7--------------------|
----------------------|----------------------|------------0s0s0s0s0s0s0s0s|


                                                          3x
|------------------------------|--------------------------||
|*-----------------------------|-------------------------*||
|------------------------------|--------------------------||
|*-----------------------------|-------------------------*||
|---0--0--0-0--0--0--0-0-0-0-0-|--0--0--0-0--x-6----5-----||


                                                2x                       
-----------------------|------------------------||----------------------|
*----------------------|-----------------------*||----------------------|
-------9---10----------|------9---10------7-----||------9---10----------|
*--7-------------------|--7--------------------*||--7-------------------|
-----------------------|------------------------||----------------------|


                                                        
-----------------------||------------------------------|
-----------------------||*-----------------------------|
------9---10------7----||------------------------------|
--7--------------------||*-----------------------------|
-----------------------||---0--0--0-0--0--0--0-0-0-0-0-|


                          3x                                                2x
--------------------------||-----------------------|------------------------||
-------------------------*||*----------------------|-----------------------*||
--------------------------||-------9---10----------|------9---10------7-----||
-------------------------*||*--7-------------------|--7--------------------*||
--0--0--0-0--x-6----5-----||-----------------------|------------------------||


                                                                               
----------------------|-----------------------||------------------------------|
----------------------|-----------------------||*-----------------------------|
------9---10----------|------9---10------7----||------------------------------|
--7-------------------|--7--------------------||*-----------------------------|
----------------------|-----------------------||---0--0--0-0--0--0--0-0-0-0-0-|


                          3x                                        
--------------------------||--------------------|------------------|
-------------------------*||*-------------------|------------------|
--------------------------||--------------------|------------------|
-------------------------*||*-------------------|------------------|
--0--0--0-0--x-6----5-----||---0s---------------|------------------|


                                                                 
--------------------------------|-------------------------------|
--------------------------------|-------------------------------|
--------------------------------|--------------------------7----|
--8-7-0-8-7-0-8-7-0-8-7-0-8--8--|--8-7-0-7-0-7-0-7-0-8-7-0------|
--------------------------------|-------------------------------|


                                                                   2x
|---------------------------------|--------------------------------||
|*--------------------------------|-------------------------------*||
|---------------------------------|--------------------------7-----||
|*--8-7-0-8-7-0-8-7-0-8-7-0-8--8--|--8-7-0-7-0-7-0-7-0-8-7-0------*||
|---------------------------------|--------------------------------||


                                                                 
--------------------------------|-------------------------------|
--------------------------------|-------------------------------|
--------------------------------|--------------------------7----|
--8-7-0-8-7-0-8-7-0-8-7-0-8--8--|--8-7-0-7-0-7-0-7-0-8-7-0------|
--------------------------------|-------------------------------|


                                                          3x                    
|------------------------------|--------------------------||-------------------|
|*-----------------------------|-------------------------*||-------------------|
|------------------------------|--------------------------||-------------------|
|*-----------------------------|-------------------------*||-------------------|
|---0--0--0-0--0--0--0-0-0-0-0-|--0--0--0-0--x-6----5-----||--0----------------|


                                                         
------------------|------------------|------------------|
------------------|------------------|------------------|
------------------|------------------|------------------|
------------------|------------------|------------------|
------------------|------------------|------------------|


                                                            
|------------------------------|--------------------------||
|*-----------------------------|-------------------------*||
|------------------------------|--------------------------||
|*-----------------------------|-------------------------*||
|---0--0--0-0--0--0--0-0-0-0-0-|--0--0--0-0--x-6----5-----||


                                                                               
------------------------------|--------------------------||-------------------|
*-----------------------------|-------------------------*||-------------------|
----------------------9-------|--------------------------||-------------------|
*-----------------------------|-------------------------*||--7----------------|
---0--0--0-0--0-0--0----0-0-0-|--0--0--0-0--x-6----5-----||-------------------|


                                                                        
-----------------------|----------------------|------------------------|
-----------------------|----------------------|--------7----------7----|
-------9/---10----9----|--7--------------9----|--10/--------10/--------|
--7--------------------|-------8/---7---------|------------------------|
-----------------------|----------------------|------------------------|


                                                                        
-----------------------|----------------------|------------------------|
-----------------------|----------------------|--------7----------7----|
-------9/---10----9----|--7--------------9----|--10/--------10/--------|
--7--------------------|-------8/---7---------|------------------------|
-----------------------|----------------------|------------------------|


                                                                        
-----------------------|----------------------|------------------------|
-----------------------|----------------------|--------7----------7----|
-------9/---10----9----|--7--------------9----|--10/--------10/--------|
--7--------------------|-------8----7---------|------------------------|
-----------------------|----------------------|------------------------|


                     
-------------------||
-------------------||
-------------------||
--7----------------||
-------------------||
comments
We did not receive enough feedback on this tab! Please rate:
print report bad tab
1 2 3 4 5
I want to post or [tab]
guest
You may want to rate the tab now too:
select rating
Please do not post tabs as comments. Select "correction" instead!