Oops, an error
Loading. Please wait.

Recognize Tab

version 1
version 1

Whole song

Interactive

by Flaw
25 views 3 this week
no commentswrite comment
1 2 3 4 5
3 more votes to show rating
add to favorites
launch autoscroll
font size
0
reset
how to read this tab
guitar tuner
Autoscroll
slow
fast
+/-
esc
set tempo
stop
Help us to improve Ultimate-Guitar.com Take our survey!
×
Author
Difficulty
Tuning
novice
B E A D F# B
Song: Recognize
Album: Endangered Species
By: Flaw

Tuning: BEADGbe
/\=Slide up or down
. (under note)= Palm Mute
///= Trem. Pick
~= Hold note/chord out
x= Mute String

Intro (Not a Whammy, it is a chorus effect)
e|----------------------------------------------|
b|----------------------------------------------|
G|12~-11~--12-14-12-11-7~-4-7-7/9-9-4/5-4-2-2/4-|
D|----------------------------------------------|
A|----------------------------------------------|
E|----------------------------------------------|
B|----------------------------------------------|

Verse (Chorus)
e|----------------------------------------------|
b|----------------------------------------------|
G|11~-10~--11-13-11-10-7~-4-7-7/9-9---11-10-13--|
D|----------------------------------------------|
A|----------------------------------------------|
E|----------------------------------------------|
B|----------------------------------------------|

Pre-Chorus (Dist.)
e|------------------------------------------------------------------------------------
b|------------------------------------------------------------------------------------
G|------------------------------------------------------------------------------------
D|2-2-2-2--------------------------------4-4-5-4-----------2-2-2-2--------------------
A|2-2-2-2------2-3-2-----2------5-5-5-5----------5-5-------2-2-2-2------2-3-2---2-----
E|0-0-0-0--0-0-------0-0---0-0--5-5-5-5--------------5-5---0-0-0-0--0-0-------0---0-0-
B|------------------------------3-3-3-3-----------------------------------------------
PM. . .    . .       . .   . .  . . .    . .               . . . .  . .       .   . .

Pre-Chorus cont.
e|-------------------|
b|-------------------|
G|-------------------|
D|-------------5-6-5-|
A|5-5-5-5~-3/5-x-x-x-|
E|5-5-5-5~-3/5-3-4-3-|
B|3-3-3-3~-1/3-------|
PM. . .

Chorus (Dist.)
         !  $ x2      !    $  x1
e|------------|-----------------|----------------------------------|
b|------------|-----------------|----------------------------------|
G|--5///------|--5///-7///-9///-|--5///----------------------------|
D|2-x///-5~---|2-x///-x///-x///-|2-x///-------------------5-5-5-2~-|
A|2-3///-5~-5-|2-3///-5///-7///-|2-3///-5-5-5-5--3-3-3-3--5-5-5-2~-|
E|0------3~-5-|0----------------|0------5-5-5-5--3-3-3-3--3-3-3-0~-|
B|----------3-|-----------------|-------3-3-3-3--1-1-1-1-----------|
PM                                      . . .    . . .    . .      
!: This chord holds out a while, then changes to next chord
$: This chord doesn't last long, move to next line

Verse again
Chorus again

Bridge 1  (Dist.)               x2
e|-----------------------------|
b|-----------------------------|
G|-----------------------------|
D|2-----5-5-4-7--2-----5-5-4---|
A|2-2-3-5-5-4-7--2-2-3-5-5-4-5-|
E|0-2-3-3-3-2-5--0-2-3-3-3-2-5-|
B|--0-1------------0-1-------3-|
PM. . . . . . .  . . . . . . .

Bridge 2      x2         1st                  2nd
e|---------------|----------------|-----------------|
b|---------------|----------------|-----------------|
G|------12-11-14-|--------12-11-7-|--------17-12-11-|
D|2------x--x--x-|--2------x--x-x-|--2------x--x--x-|
A|2-2-3-10--9-12-|--2-2-3-10--9-5-|--2-2-3-15-10--9-|
E|0-2-3----------|--0-2-3---------|--0-2-3----------|
B|--0-1----------|----0-1---------|----0-1----------|
The octaves are trem. picked.

Chorus x1
then
Outro Chorus
         !  $ x2      !    $  x1
e|------------|-----------------|-----------------------|
b|------------|-----------------|-----------------------|
G|--5///------|--5///-7///-9///-|--5///--5-4---5-4------|
D|2-x///-5~---|2-x///-x///-x///-|2-x///--x-x-7-x-x-5----|
A|2-3///-5~-5-|2-3///-5///-7///-|2-3///--3-2-x-3-2-x-3~-|
E|0------3~-5-|0----------------|0-----------5-----3-3~-|
B|----------3-|-----------------|--------------------1~-|
Suggest correction
Give kudos to tab author, rate the tab!
1 2 3 4 5
comments
print report bad tab
guest
You may want to rate the tab now too:
select rating
Wanna post a correction for this tab? Suggest correction