Oops, an error
Loading. Please wait.

Whole Tab

version 4
version 4

Whole song

Interactive

by Flaw
4 views 3 this week
no commentswrite comment
1 2 3 4 5
3 more votes to show rating
add to favorites
launch autoscroll
font size
0
reset
how to read this tab
guitar tuner
Autoscroll
slow
fast
+/-
esc
set tempo
stop
Help us to improve Ultimate-Guitar.com Take our survey!
×
Author
Difficulty
Tuning
novice
B E A D F# B
Band:Flaw
Song:Whole
Album:Through the Eyes
Tuning: Normal 7-String(B-E-A-D-G-B-E)

Intro & 1st Half of Verse1:Bass

Second Half of Verse1{Play Twice}
Gtrs.1&2(Mid/Heavy Distortion)   |1st  |2nd
E|-------------------------------|-----|--------------|
B|-------------------------------|Trem-|--------------|
G|-------------------------------|Pick-|--------------|
D|--------------Let Ring---------|-12--|-12-10--9--5--|
A|-2~~~~~~~~~~~~~~~~~~~~~~~~~~~~~|--x--|--x--x--x--x--|
E|-2~~~~~~~~~~~~~~~~~~~~~~~~~~~~~|-10--|-10--8--7--3--|
B|-0~~~~~~~~~~~~~~~~~~~~~~~~~~~~~|-----|-------------0|

Chorus{4 Times}    |1st,2nd,3rd|4th
E|-----------------|-----------|---------|
B|-----------------|-A-String--|-----Trem|
G|-----------------|-Optional--|-----Pick|
D|----------9-9-7-7|10-10-9-9--|-10----12|
A|-2--2-2---9-9-7-7|10-10-9-9--|--X-----x|
E|-2--2-2---7-7-5-5|-8--8-7-7--|--8----10|
B|-0--0-0----------|-----------|---------|

Pre-Verse
E|--------------------------------|
B|----------------------------Trem|
G|----------------------------Pick|
D|------------Let-Ring---------12-|
A|-2~~~~~~~~~~~~~~~~~~~~~~~~~~--x-|
E|-2~~~~~~~~~~~~~~~~~~~~~~~~~~-10-|
B|-0~~~~~~~~~~~~~~~~~~~~~~~~~~----|

Verse2{Twice}                            |1st
E|---------------------------------------|---------------------|
B|---------------------------------------|-----------------Trem|
G|------------------7------------------7-|-----------------Pick|
D|------------------6--------------x-x-6-|------------------12-|
A|-2-2--2-2-2-2-----5-2-2--2-2-2-2-x-x-5-|-2-2--2-2-2-2-x-x--x-|
E|-2-2--2-2-2-2-------2-2--2-2-2-2-x-x---|-2-2--2-2-2-2-x-x-10-|
B|-0-0--0-0-0-0-------0-0--0-0-0-0-0-0---|-0-0--0-0-0-0-0-0----|
p.m.                               ...                  ...
 
 |2nd
E|--------------------------Trem-----|
B|--------------------------Pick-----|
G|-------------------------Octaves---|
D|--------------Let-Ring---12-10-9-5-|
A|-2-2--2-2-2-2~~~~~~~~~~~--x--x-x-x-|
E|-2-2--2-2-2-2~~~~~~~~~~~-10--8-7-3-|
B|-0-0--0-0-0-0~~~~~~~~~~~-----------|


Repeat Chorus

Post Chorus
 |1st&3rd         |2nd                 |4th
E|----------------|--------------------|--------------|
B|----------------|--------------------|--------------|
G|---------------7|------------------7-|--------------|
D|---------------6|--------------x-x-6-|------x-----R-|
A|-2-2--x-2-2-2--5|-2-2--x-2-2-2-x-x-5-|-2-2--x-2-2-E-|
E|-2-2--x-2-2-2---|-2-2--x-2-2-2-x-x---|-2-2--x-2-2-S-|
B|-0-0--x-0-0-0---|-0-0--x-0-0-0-0-0---|-0-0--x-0-0-T-|
p.m                              ...                 

Heavy Interlude
 |1,3,5,7   |2,6         |4,8
E|----------|------------|-------------|   |-----|
B|----------|------------|-------------|   |-----|
G|-------7--|-----------7|-----------7b|End|-----|
D|-------6--|-----------6|-----------6b|On |-----|
A|-2-2-2-5--|-2-2-2-2---5|-2-2-2-2---5b|   |-2-2-|
E|-2-2-2----|-2-2-2-2----|-2-2-2-2-----|   |-2-2-|
B|-0-0-0----|-0-0-0-0----|-0-0-0-0-----|   |-0-0-|
light p.m.on B chords

1st Half of Verse3{No Guitar}

2nd Half of Verse3
Gtr.1&2[Clean w/Chorus]                       
E|--------------|------|--------------|----------|-7--|-7--|
B|--------7-8p7-|------|--------7-8p7-|----------|-7--|-7--|
G|-11-9---------|11-9--|--9-7---------|----------|-7--|-7--|
D|------9-------|-----7|------5-------|-5-5--5/9-|-9--|-9--|
A|--------------|------|--------------|----------|-9--|-9--|
E|--------------|------|--------------|----------|----|----|
B|--------------|------|--------------|----------|----|----|

[Chorus off/distortion on]
E|------------------|
B|--Trem Pick All---|
G|------------------|
D|-12--------10-9-7-|
A|--x---------x-x-x-|
E|-10---------8-7-5-|
B|------------------|

Outro
E|------------------|         |----------------------------|
B|------------------|         |----------------------------|
G|----------------7-|         |----------------------------|
D|----------------6-|Play     |------------------Let Ring--| 
A|-2-2-x-2-2--x-x-5-| 3   Then|-2-2--2-2--2-2~~~~~~~~~~~~~~|  
E|-2-2-x-2-2--x-x---|Times    |-2-2--2-2--2-2~~~~~~~~~~~~~~|   
B|-0-0-x-0-0--0-0---|         |-0-0--0-0--0-0~~~~~~~~~~~~~~|
Suggest correction
Give kudos to tab author, rate the tab!
1 2 3 4 5
comments
print report bad tab
guest
You may want to rate the tab now too:
select rating
Wanna post a correction for this tab? Suggest correction