Oops, an error
Loading. Please wait.

Worlds Divide Tab

by Flaw
13 views 1 this week
no commentswrite comment
1 2 3 4 5
3 more votes to show rating
add to favorites
launch autoscroll
font size
0
reset
how to read this tab
guitar tuner
Autoscroll
slow
fast
+/-
esc
set tempo
stop
Help us to improve Ultimate-Guitar.com Take our survey!
×
Author
Difficulty
FLAW - WORLD'S DIVIDE                                                 

Tuning: 7-String Standard

INTRO
|---------------------------------------------------------|
|----------------------18----------------15---------------|
|---------------------------17---14-----------------------|
|---------------------------------------------------------|
|---------------------------------------------------------|
|---------------------------------------------------------|
|---------------------------------------------------------|


|---------------------------------------------------------|
|----------------------18---------------15---------------|
|--------------------------------17-----------------------|
|---------------------------------------------------------|
|---------------------------------------------------------|
|---------------------------------------------------------|
|---------------------------------------------------------|



VERSE
|--------------------------------------------|------------------------------------------------|
|--------------------------------------------|------------------------------------------------|
|--------------------------------------------|------------------------------------------------|
|--------------------------------------------|---------------------------------------3--2-----|
|-----------------------------------3--2--3--|---------------------------------------------3--|
|--------------------------------------------|------------------------------------------------|
|--------------------------------------------|------------------------------------------------|
|--------------------------------------------|------------------------------------------------|


                                              _________________________                              
                                             |   2nd time only this    |
|--------------------------------------------|----------------------------------0--6-5--3-/5-|
|--------------------------------------------|-------------------------------5----------------|
|--------------------------------------------|------------------------------------------------|
|--------------------------------------------|-------------0h2----2/3-2-----------------------|
|-----------------------------------3--2--3--|-3----3/5---------------------------------------|
|--------------------------------------------|------------------------------------------------|
|--------------------------------------------|------------------------------------------------|
|--------------------------------------------|------------------------------------------------|



PRE CHORUS                                      X2
|-0h1-----1------1--0h1-----1------1--3p1---1--1--|
|-3-------3------3--3-------3------3--3-----3--3--|
|-2-------2------2--2-------2------2--2-----2--2--|
|-0-------0------0--0-------0------0--0-----0--0--|
|-------------------------------------------------|
|-------------------------------------------------|
|-------------------------------------------------|


                                                X2
|-3-------3--3--3--3-------3--3--3--3-------3--3--|
|-3-------3--3--3--3-------3--3--3--3-------3--3--|
|-0-------0--0--0--0-------0--0--0--0-------0--0--|
|-0-------0--0--0--0-------0--0--0--0-------0--0--|
|-------------------------------------------------|
|-------------------------------------------------|
|-------------------------------------------------|


                                                X2
|-0h1-----1------1--0h1-----1------1--3p1---1--1--|
|-3-------3------3--3-------3------3--3-----3--3--|
|-2-------2------2--2-------2------2--2-----2--2--|
|-0-------0------0--0-------0------0--0-----0--0--|
|-------------------------------------------------|
|-------------------------------------------------|
|-------------------------------------------------|


                                                X2
|-0-------0--0--0--0-------0--0--0--0-------0--0--|
|-1-------1--1--1--1-------1--1--1--1-------1--1--|
|-0-------0--0--0--0-------0--0--0--0-------0--0--|
|-------------------------------------------------|
|-3-------3--3--3--3-------3--3--3--3-------3--3--|
|-3-------3--3--3--3-------3--3--3--3-------3--3--|
|-------------------------------------------------|



CHORUS
|----------------------------------------------------|
|----------------------------------------------------|
|-5-----5------------5-----5----------3-/5--3--------|
|-5-----5------------5-----5----------3-/5--3--------|
|-3-----3------------3-----3----------1-/3--1--------|


|----------------------------------------------------|
|----------------------------------------------------|
|-5-----5------------5-----8----------8-7--5--------|
|-5-----5------------5-----8----------8-7--5--------|
|-3-----3------------3-----6----------6-5--3--------|


|----------------------------------------------------|
|----------------------------------------------------|
|-3--------------------------------------------------|
|-3--------------------------------------------------|
|-1--------------------------------------------------|


|----------------------------------------------------|
|-5-----------------------------------5-/7-----------|
|----------------------------------------------------|
|-3-----------------------------------3-/5-----------|
|----------------------------------------------------|





SECOND CHORUS   (3:15)
|----------------------------------------------------|
|----------------------------------------------------|
|-5-----5------------5-----5----------3-/5--3--------|
|-5-----5------------5-----5----------3-/5--3--------|
|-3-----3------------3-----3----------1-/3--1--------|
|
|
|----------------------------------------------------|
|--------------------10------------------------------|
|-7--------------------------------------------------|
|----------------------------------------------------|
|----------------------------------------------------|
|----------------------------------------------------|
|----------------------------------------------------|


|----------------------------------------------------|
|----------------------------------------------------|
|-5-----5------------5-----8----------8-7--5--------|
|-5-----5------------5-----8----------8-7--5--------|
|-3-----3------------3-----6----------6-5--3--------|
|
|
|----------------------------------------------------|
|--------------------10------------------------------|
|-7--------------------------------------------------|
|----------------------------------------------------|
|----------------------------------------------------|
|----------------------------------------------------|
|----------------------------------------------------|


|----------------------------------------------------|
|----------------------------------------------------|
|-3--------------------------------------------------|
|-3--------------------------------------------------|
|-1--------------------------------------------------|
|
|
|-13-----12------------------------------------------|
|----------------12----------------------------------|
|----------------------------------------------------|
|----------------------------------------------------|
|----------------------------------------------------|
|----------------------------------------------------|
|----------------------------------------------------|


|----------------------------------------------------|
|-5-----------------------------------5-/7-----------|
|----------------------------------------------------|
|-3-----------------------------------3-/5-----------|
|----------------------------------------------------|
|                         ___________________________
|                        |   2nd time play this      |
|-13-----12-----15-------|-13-----15----12-----------|
|------------------------|---------------------------|
|------------------------|---------------------------|
|------------------------|---------------------------|
|------------------------|---------------------------|
|------------------------|---------------------------|
|------------------------|---------------------------|




MIDDLE CHORDS
(3:38 - Don’t give up on hope...)
|---1---|  |---3---|  |---1---|  |---0---|
|---2---|  |---3---|  |---2---|  |---1---|
|---3---|  |---0---|  |---3---|  |---0---|
|---0---|  |---0---|  |---0---|  |-------|
|-------|  |-------|  |-------|  |---3---|
|-------|  |-------|  |-------|  |---3---|
|-------|  |-------|  |-------|  |-------|



(4:02 - Hope that binds us...)           
|---1---|  |---0---|  |---3---|  |---3---|
|---2---|  |---1---|  |---3---|  |---3---|
|---3---|  |---2---|  |---0---|  |---0---|
|---0---|  |---2---|  |---0---|  |---0---|
|-------|  |---0---|  |---2---|  |---2---|
|-------|  |-------|  |---3---|  |---3---|
|-------|  |-------|  |-------|  |-------|




LAST CHORUS   (4:25)
|----------------------------------------------------|
|----------------------------------------------------|
|-5-----5------------5-----5----------3-/5--3--------|
|-5-----5------------5-----5----------3-/5--3--------|
|-3-----3------------3-----3----------1-/3--1--------|
|
|
|-15-------------------------------------------------|
|--------------------14------------------------------|
|----------------------------------------------------|
|----------------------------------------------------|
|----------------------------------------------------|
|----------------------------------------------------|
|----------------------------------------------------|


|----------------------------------------------------|
|----------------------------------------------------|
|-5-----5------------5-----8----------8-7--5--------|
|-5-----5------------5-----8----------8-7--5--------|
|-3-----3------------3-----6----------6-5--3--------|
|
|
|----------------------------------------------------|
|--------------------10------------------------------|
|-7--------------------------------------------------|
|----------------------------------------------------|
|----------------------------------------------------|
|----------------------------------------------------|
|----------------------------------------------------|


|----------------------------------------------------|
|----------------------------------------------------|
|-3--------------------------------------------------|
|-3--------------------------------------------------|
|-1--------------------------------------------------|
|
|
|-13-----12------------------------------------------|
|----------------12----------------------------------|
|----------------------------------------------------|
|----------------------------------------------------|
|----------------------------------------------------|
|----------------------------------------------------|
|----------------------------------------------------|



|----------------------------------------------------|
|-5-----------------------------------5-/7-----------|
|----------------------------------------------------|
|-3-----------------------------------3-/5-----------|
|----------------------------------------------------|
|
|
|-13-----12-----13-----------------------------------|
|------------------------12--------------------------|
|----------------------------------------------------|
|----------------------------------------------------|
|----------------------------------------------------|
|----------------------------------------------------|
|----------------------------------------------------|



|----------------------------------------------------|
|----------------------------------------------------|
|-5-----5------------5-----5----------3-/5--3--------|
|-5-----5------------5-----5----------3-/5--3--------|
|-3-----3------------3-----3----------1-/3--1--------|
|
|
|----------------------------------------------------|
|--------------------10------------------------------|
|-7--------------------------------------------------|
|----------------------------------------------------|
|----------------------------------------------------|
|----------------------------------------------------|
|----------------------------------------------------|


|----------------------------------------------------|
|----------------------------------------------------|
|-5-----5------------5-----8----------8-7--5--------|
|-5-----5------------5-----8----------8-7--5--------|
|-3-----3------------3-----6----------6-5--3--------|
|
|
|----------------------------------------------------|
|--------------------10------------------------------|
|-7--------------------------------------------------|
|----------------------------------------------------|
|----------------------------------------------------|
|----------------------------------------------------|
|----------------------------------------------------|


|----------------------------------------------------|
|----------------------------------------------------|
|-3--------------------------------------------------|
|-3--------------------------------------------------|
|-1--------------------------------------------------|
|
|
|-13-----12------------------------------------------|
|----------------12----------------------------------|
|----------------------------------------------------|
|----------------------------------------------------|
|----------------------------------------------------|
|----------------------------------------------------|
|----------------------------------------------------|



|----------------------------------------------------|
|-5-----------------------------------5-/7-----------|
|----------------------------------------------------|
|-3-----------------------------------3-/5-----------|
|----------------------------------------------------|
|
|
|-13------------12-----------------------------------|
|----------------------------------------------------|
|----------------------------------------------------|
|----------------------------------------------------|
|----------------------------------------------------|
|----------------------------------------------------|
|----------------------------------------------------|



OUTRO
(4:48 - Now you are just where you belong...)
|---1---|  |---0---|  |---3---|  |---3---|  |---1---|  |---0---|  |---0---|  |---1---|
|---2---|  |---1---|  |---3---|  |---3---|  |---3---|  |---1---|  |---0---|  |---1---|
|---3---|  |---2---|  |---0---|  |---0---|  |---2---|  |---2---|  |---0---|  |---2---|
|---0---|  |---2---|  |---0---|  |---0---|  |---0---|  |---2---|  |---2---|  |---3---|
|-------|  |---0---|  |-------|  |-------|  |-------|  |---0---|  |---2---|  |---3---|
|-------|  |-------|  |-------|  |-------|  |-------|  |-------|  |---0---|  |---1---|
|-------|  |-------|  |-------|  |-------|  |-------|  |-------|  |-------|  |-------|




(5:10 - Now you are right where you belong)
|---1---|  |---0---|  |---3---|
|---2---|  |---1---|  |---3---|
|---3---|  |---0---|  |---0---|
|---0---|  |-------|  |---0---|
|-------|  |---3---|  |-------|
|-------|  |---3---|  |-------|
|-------|  |-------|  |-------|
Suggest correction
Give kudos to tab author, rate the tab!
1 2 3 4 5
comments
print report bad tab
guest
You may want to rate the tab now too:
select rating
Wanna post a correction for this tab? Suggest correction