Oops, an error
Loading. Please wait.

333 Revisited bass

by Flea
719 views 1 this week
no commentswrite comment
1 2 3 4 5
1 last vote to show rating
add to favorites
×
Save as Personal and add changes to this tab that will be seen only by you. Learn more ›
×
You can save this tab as Personal to edit and correct it or add notes. All changes will be seen only by you. Learn more »
launch autoscroll
font size
0
reset
guitar tuner
edit
Autoscroll
slow
fast
+/-
esc
set tempo
stop
Author
Difficulty
intermediate
g----------------------------------------------------------------|
d----------------------------------------------------------------|
a-8--8-8-8-6-----8-8--8-8-8-6------3--3-3-3-4---5-5--5--5--5-6---|
e----------------------------------------------------------------|


g--------------5---------------------------------------------------|
d---------------6--------------------------------------------------|
a-8--8-8-8-6------8--8-8--8-8-8-6------3--3-3-3-4---5-5--5--5--5-6-|
e-------------------8----------------------------------------------|

g-------------------------------------------------------------|
d----------11-------------------11----10----------------------|
a--8-8--10----10--11--11--13-13----13------10--10-------------|
e--------------------------------------------------8--8-------|


g---------------------------------------------------------------|
d----10--------11-------10-----------11----10-------------------|
a--8----8--10----10--11----11--13-13----13------10--10----------|
e--------------------------------------------------------8--8---|


g----------------------------------------------------------------|
d--------------------------------------------3-6--------3-6------|
a-8--8-8-8-6-----8-8--8-8-8-6------3--3-3-3-4----5-5--5----5-6---|
e----------------------------------------------------------------|


g-------------------------------------------------------------|
d----------11-------------------11----10----------------------|
a--8-8--10----10--11--11--13-13----13------10--10-------------|
e--------------------------------------------------8--8-------|



Here starts the synth part:  /  Aqui empieza la parte del sintetizador:


g------------------------||\
d------------------------|| \  4x
a-------------6-6--4--4--|| /
e-1--1--4-4-4------------||/


g----------------------||\
d----------------------|| \    2x
a-1--1--4-4-4----------|| /
e-------------3--3--3--||/


g------------------------||\
d------------------------|| \  2x
a-------------6-6--4--4--|| /
e-1--1--4-4-4------------||/


g-------------------------------------------------------------------------|
d-------------------------------------------------------------------------|
a-1--1--1-----------------------------4--4--4-----------6-6-6-6--4-4-4-4--|
e----------4--4--4--0--0--0-1--1--1------------4--4--4--------------------|



g------------------------||\
d------------------------|| \  2x
a-------------6-6--4--4--|| /
e-1--1--4-4-4------------||/


g----------------------||\
d----------------------|| \    2x
a-1--1--4-4-4----------|| /
e-------------3--3--3--||/


g------------------------||\
d------------------------|| \  2x
a-------------6-6--4--4--|| /
e-1--1--4-4-4------------||/


g-------------------------------------------------------------------------|
d-------------------------------------------------------------------------|
a-1--1--1-----------------------------4--4--4-----------6-6-6-6--4-4-4-4--|
e----------4--4--4--0--0--0-1--1--1------------4--4--4--------------------|


g--------------------------------------|
d--------------------1-----------------|
a---------------1-3-----4-3------------|
e-1--1--3-4--4---------------4--4------|


g-----------------------------|
d-----------------------------|
a---------------1---4--4--4---|
e-1--1--3-4--4----3-----------|


g--------------------------------------|
d--------------------1-----------------|
a---------------1-3-----4-3------------|
e-1--1--3-4--4---------------4--4------|


g------------------9-6-------------------|
d----------------------8-5---------------|
a---------------1----------7-4-----------|
e-1--1--3-4--4-----------------6-3--1----|




Hope you enjoy this tab! Flea is an amazing artist! Thank you for rating my tab OMPS

Espero que disfruten la tablatura! Flea es un artista impresionante! Gracias por puntuar 
mi tablatura OMPS
Suggest correction
Creating personal tab
Creating personal tab
You can edit any tab online and save it as your Personal.

You can edit, replace or remove any tab part or add personal notes – all changes will be seen only by you.

Personal tabs can be accessed anytime from any device, even offline.
Learn more »
Give kudos to tab author, rate the tab!
1 2 3 4 5
comments
print report bad tab
guest
You may want to rate the tab now too:
select rating
Wanna post a correction for this tab? Suggest correction