Oops, an error
Loading. Please wait.

Broken Thoughts Of Praise tab

version 1
version 1

Whole song

211 views 1 this week
2 commentsread comments
1 2 3 4 5
3 more votes to show rating
add to favorites
×
Save as Personal and add changes to this tab that will be seen only by you. Learn more ›
×
You can save this tab as Personal to edit and correct it or add notes. All changes will be seen only by you. Learn more »
launch autoscroll
font size
0
reset
how to read this tab
guitar tuner
edit
Autoscroll
slow
fast
+/-
esc
set tempo
stop
This is the first song i tabbed and maybe the only one and truthfully i played along 
the song for fun and figured it out on accident so here you go have fun with it

by the way some of the song i havent figured out yet

Song: Broken Thoughts of Praise
Artist: Flee The Seen
Album: Doubt Becomes The New Addiction

h= hammer on
p= pull off
x= mute
/= slide up
\= slide down

Intro

e|------------------------------------------------------------------| x2
b|------------------------------------------------------------------|
g|----10-10----10-10----10-10---------------------------------------|
d|-00-x--x--00-x--x--00-x--x----------------------------------------|
a|-00-8--8--00-8--8--00-8--8----------------------------------------|
D|-00-------00-------00---------------------------------------------|

Verse

e|------------------------------------------------------------------|x8
b|-9h10-12h13-------------------------------------------------------|
g|------------------------------------------------------------------|
d|------------8-8-8-10-10-10----------------------------------------|
a|------------8-8-8-10-10-10----------------------------------------|
D|------------8-8-8-10-10-10----------------------------------------|

Chorus


e|------------------------------------------------------------------|x6
b|------------------------------------------------------------------|
g|-----10-10-10-----10-10-10-----10-10-10---------------------------|
d|-0-0-x--x--x--0-0-x--x--x--0-0-x--x--x---10-10-10-8-8-8-----------|
a|-0-0-8--8--8--0-0-8--8--8--0-0-8--8--8---10-10-10-8-8-8-----------|
D|-0-0----------0-0----------0-0-----------10-10-10-8-8-8-----------|

the second time you do ^^^
Lead does this, then returns to the rhythm
e|------------------------------------------------------------------|
b|------------------------------------------------------------------|
g|-----14-14-14-----14-14-14-----14-14-14---------------------------|
d|-0-0-x--x--x--0-0-x--x--x--0-0-x--x--x---10-10-10-8-8-8-----------|
a|-0-0-12-12-12-0-0-12-12-12-0-0-12-12-12--10-10-10-8-8-8-----------|
D|-0-0----------0-0----------0-0-----------10-10-10-8-8-8-----------|


Verse
e|------------------------------------------------------------------|x8
b|-9h10-12h13-------------------------------------------------------|
g|------------------------------------------------------------------|
d|------------8-8-8-10-10-10----------------------------------------|
a|------------8-8-8-10-10-10----------------------------------------|
D|------------8-8-8-10-10-10----------------------------------------|

Chorus

e|------------------------------------------------------------------|x6
b|------------------------------------------------------------------|
g|-----10-10-10-----10-10-10-----10-10-10---------------------------|
d|-0-0-x--x--x--0-0-x--x--x--0-0-x--x--x---10-10-10-8-8-8-----------|
a|-0-0-8--8--8--0-0-8--8--8--0-0-8--8--8---10-10-10-8-8-8-----------|
D|-0-0----------0-0----------0-0-----------10-10-10-8-8-8-----------|

the second fourth and sixth times you do ^^^
Lead does this, then returns to the rhythm for the first third and fifth times
e|------------------------------------------------------------------|
b|------------------------------------------------------------------|
g|-----14-14-14-----14-14-14-----14-14-14---------------------------|
d|-0-0-x--x--x--0-0-x--x--x--0-0-x--x--x---10-10-10-8-8-8-----------|
a|-0-0-12-12-12-0-0-12-12-12-0-0-12-12-12--10-10-10-8-8-8-----------|
D|-0-0----------0-0----------0-0-----------10-10-10-8-8-8-----------|


Bridge
this is weird but its a bunch of palm mutes and in between them is
e|--11-11-11-11---------|
b|--11-11-11-11---------|
g|----------------------|
d|----------------------|
a|----------------------|
D|----------------------|

and
e|----------------------|
b|--12h14p12--12h13p12--|
g|----------------------|
d|----------------------|
a|----------------------|
D|----------------------|

enjoy

they way it is tabbed is in order

            
            
Suggest correction
Creating personal tab
Creating personal tab
You can edit any tab online and save it as your Personal.

You can edit, replace or remove any tab part or add personal notes – all changes will be seen only by you.

Personal tabs can be accessed anytime from any device, even offline.
Learn more »
Give kudos to tab author, rate the tab!
1 2 3 4 5
comments
print report bad tab
2 comments total.
0 reply
rockstarbowker 283 Jan 27, 2009 05:46 PM

I'm gonna help you out a little bit.

The verse should be:

e|------------------------------------|x2
b|------------------------------------|
g|------------------------------------|
d|---15p14------17p15--8-8-8-8-8-8-10-|
a|---------------------8-8-8-8-8-8-10-|
D|-0--------00---------8-8-8-8-8-8-10-|
. ..
e|-----------------------------------|(keep in mind the
b|-----------------------------------| licks are played one
g|---15p14------17p15----------------| string higher on this
d|---------------------7-7-7-7-7-7-8-| part)
a|---------------------7-7-7-7-7-7-8-|
D|-0--------00---------7-7-7-7-7-7-8-|
. ..
e|------------------------------------|
b|------------------------------------|
g|---15p14------17p15-----------------|
d|---------------------8-8-8-8-8-8-10-|(and this one)
a|---------------------8-8-8-8-8-8-10-|
D|-0--------00---------8-8-8-8-8-8-10-|
. ..

0 reply
rockstarbowker 283 Jan 27, 2009 05:46 PM

dang it!
those dots should be under the 0's.
They're palm mutes

guest
You may want to rate the tab now too:
select rating
Wanna post a correction for this tab? Suggest correction