Oops, an error
Loading. Please wait.

Fried Eggs bass

304 views 6 this week
1 commentread comment
1 2 3 4 5
x 3
add to favorites
×
Save as Personal and add changes to this tab that will be seen only by you. Learn more ›
×
You can save this tab as Personal to edit and correct it or add notes. All changes will be seen only by you. Learn more »
launch autoscroll
font size
0
reset
guitar tuner
edit
Autoscroll
slow
fast
+/-
esc
set tempo
stop
Difficulty
intermediate
Fried Eggs - Bass tab

Apart from the filter effect used by the bassist (Gabe Miller)
the tab is fairly accurate. However since this is the first tab made for
'Fried Eggs" any suggestions would be glady appreciated.

Additionally when learning this tab it is recommended to listen
to the song in conjunction with reading the tab due to particuliar
phrasing and articulation of each 'musical sentence'.

Fried Eggs: https://www.youtube.com/watch?v=UdHLzq7a5ec

Lyrics: https://fleecemusic.bandcamp.com/

[Intro]
G|-----18--------------------------------------|
D|-----18--------------------------------------|
A|-16-----16/s---6-----------2------2-2--------|
E|--------------------------------2------------|
B|---------------------------------------------|

G|-----18------------8h-6----------------------|
D|-----18-----------------8--------------------|
A|-16-----16/s---6-----------6-----2------2-2--|
E|-------------------------------------2-------|
B|---------------------------------------------|

G|-----18------------8--8h-6-------------------|
D|-----18----------8---------8-----------------|
A|-16-----16/s---6--------------6----2-----2-2-|
E|--------------------------------------2------|
B|---------------------------------------------|

G|-----18------------8-------------------------|
D|-----18----------8---------------------------|
A|-16-----16/s---6------------------2-----2-2--|
E|--------------------------------------2------|
B|---------------------------------------------|

[Verse 1]
G|-----18------------8--------------16----------|
D|-----18----------8-------------16-------------|
A|-16-----16/s---6-----------14-------14--------|
E|----------------------------------------------|
B|----------------------------------------------|
   "Fried Eggs, the simple things"

G|-----18-----------8-6-------------------------|
D|-----18---------------6-6h-8------------------|
A|-16-----16/s---6-------------6----------2-----|
E|----------------------------------------------|
B|----------------------------------------------|
   "Fried eggs, when everything was great"

[Chorus 1]
G|---------8-----------------9---8--|
D|---8--11---11--8-----8--11--------|
A|-9-----------------9--------------|
E|----------------------------------|
B|----------------------------------|
   "Nothing is in my way"

[Verse 2]
G|-----18-----------8-8--8-8-8-8------------------|
D|-----18-----------------------------------------|
A|-16-----16/s---6---------------6----2----2-2----|
E|---------------------------------------2--------|
b-------------------------------------------------|

G|-----18---------------------------------------|
D|-----18---------------------------------------|
A|-16-----16/s---6---8-6-----------2------------|
E|-----------------------4h-6-------------------|
B|-----------------------------4----------------|
   "No one ever followed through, I'm drifting now"

G|-----18------------8------------------------|
D|-----18----------8--------------------------|
A|-16-----16/s---6------------------2---------|
E|--------------------------------------------|
B|--------------------------------------------|
  "Lonely days are nothing new, I cant stop now"

G|----6------------8-------------------------|
D|--------------8----------------------------|
A|-4----4/s---6------------------2-----2-2---|
E|----------------------------------2--------|
B|-------------------------------------------|
   "Where do you come from, and where do you go?"

[Chorus 2]
G|---------8-----------------9---8--|
D|---8--11---11--8-----8--11--------|
A|-9-----------------9--------------|   [x2]
E|----------------------------------|
B|----------------------------------|
"When were alone, nothings in my way"
"Time goes one, some people make mistakes"

G|----------------------------------|
D|----------------------------------|
A|----------------------------------|
E|----------------------------------|
B|-12-------------------------------|
"In this world away from all"

[Outro]
G|----------------------------------|
D|----------------------------------|
A|--14/s--6/s--2--------------------| [x2]
E|----------------------------------|
B|----------------------------------|

G|----------------------------------|
D|----------------------------------|
A|--14/s--6/s--2--------------------|
E|----------------------------------|
B|----------------------------------|
"Where do you come from? Where do you go?"

G|----------------------------------|
D|----------------------------------|
A|------1---2-----------------------|
E|--2-------------------------------|
B|----------------------------------|
  "I can't feel it.Where do you go?"

G|----------------------------------|
D|---------1-------2--1-------------|
A|----1--4---4--1-------------------|  [x3]
E|--2-------------------------------|
B|----------------------------------|

"Us on the road, there's nothing in this world,
In the snow, there's nothing in this world,
Time goes on, there's nothing in this world"

G|----------------------------------|
D|----------------------------------|
A|----------------------------------|  [x3]
E|--2-------------------------------|
B|----------------------------------|
   "That can deny us away from all"

************************************

| h  Hammer-on
| s  Slide

************************************

            
            
Suggest correction
Creating personal tab
Creating personal tab
You can edit any tab online and save it as your Personal.

You can edit, replace or remove any tab part or add personal notes – all changes will be seen only by you.

Personal tabs can be accessed anytime from any device, even offline.
Learn more »
Give kudos to tab author, rate the tab!
1 2 3 4 5
comments
print report bad tab
1 comment total.
0 reply
ciho482 90 Aug 08, 2017 07:24 AM, edited at 11:24 am

Hey, great tab here! Very, very helpful.If you don't mind, I've just translated and published a 4-String Bass Tab of the same song and used this as the baseline for the translation. I'm not looking to beat you in anyway or other, I'm just looking to help those with a 4 String Bass and no 5 String.

guest
Wanna post a correction for this tab? Suggest correction