Oops, an error
Loading. Please wait.

Bedouin Dress tab

version 1
version 1

Whole song

1,993 views 24 this week
no commentswrite comment
1 2 3 4 5
2 more votes to show rating
add to favorites
×
Save as Personal and add changes to this tab that will be seen only by you. Learn more ›
×
You can save this tab as Personal to edit and correct it or add notes. All changes will be seen only by you. Learn more »
launch autoscroll
font size
0
reset
how to read this tab
guitar tuner
edit
Autoscroll
slow
fast
+/-
esc
set tempo
stop
-------------------------------------------------------------------------------
                             Bedouin Dress - Fleet Foxes
-------------------------------------------------------------------------------
Tabbed by: Jason Stamatyades

Tuning: D A D F# A D
Capo on 5th fret.

This is not precisely how Pecknold plays it, but it's not a bad way to play it if your playing solo.

Listen to the up/down strumming pattern in the beginning.

d |---------0--|---------0--|-----------0-|-0-0-0-0---0--0-0---0--0-0---0---0---0---|
A |---------0--|---------0--|-----------0-|-0-0-0-0---0--0-0---0--0-0---0---0---0---|
F#|-3-3-3---3--|-3-3-3---3--|-1-1-1---1-1-|-0-0-0-0---5--5-5---3--3-3---5---3---0---|
D |-0-0-0---0--|-0-0-0---0--|-0-0-0---0-0-|-0-0-0-0---0--0-0---0--0-0---0---0---0---|
A |-0-0-0h3-3--|-0-0-0h2-2--|-0-0-0h2h4-4-|-0-0-0-0---5--5-5---5--5-5---5---5---0---|
D |-0-0-0------|-0-0-0------|-0-0-0---0---|-0-0-0-0---0--0-0---0--0-0---0---0---0---|

When it kicks in strum a little louder, hitting all strings.

d |-0-0-0-0---5--5-5---4--4-4---2--2-2---0----|
A |-0-0-0-0---0--0-0---0--0-0---0--0-0---0----|
F#|-0-0-0-0---5--5-5---3--3-3---1--1-1---0----|
D |-0-0-0-0---0--0-0---0--0-0---0--0-0---0----|
A |-0-0-0-0---5--5-5---3--3-3---2--2-2---0----|
D |-0-0-0-0---0--0-0---0--0-0---0--0-0---0----|
                                                I strum all strings while playing this solo bit.

d |-0---0---0---0---0---0--|-0---0---0---0---0---0--------------------------------|
A |-0---0---0---0---0---0--|-0---0---0---0---0---0--------------------------------|
F#|-1---3---0---3---0---1--|-0---1---3---0---3---0---5-----------5----------------|
D |-2---4---5---4---0---2--|-0---2---4---5---4---5-----7-5---5-7--7-5-7-------7---|
A |-0---0---0---0---0---0--|-0---0---0---0---0---0------------------------5-------|
E |-2---4---5---4---0---2--|-0---2---4---5---4---0--------------------------------|


d |-0---0---0---0---0---0--|-0---0---0---0---0---0--|-0----0----0---0--0---0----------|
A |-0---0---0---0---0---0--|-0---0---0---0---0---0--|-7----5----7---5--5---7----------|
F#|-1---3---0---3---0---1--|-0---1---3---0---3---0--|-0----0----0---0--0---0----------|
D |-2---4---5---4---0---2--|-0---2---4---5---4---0--|-7----5----7---5--5---7----------|
A |-0---0---0---0---0---0--|-0---0---0---0---0---0--|-0----0----0---0--0---0----------|
D |-2---4---5---4---0---2--|-0---2---4---5---4---0--|-7----5----7---5--5---7----------|

   "One day at Innisfree..."

d |-2----0--------2----0-------0---0----|
A |-0----0--------0----0-------0---0----|
F#|-3----1--------3----1-------1---3----|
D |-2----0--------2----0-------0---0----|
A |-0----2--------0----2-------2---2----|
D |-------------------------------------|

   Back to this riff.

d |---------0--|---------0--|-----------0-|-0-0-0-0---5--5-5---4--4-4---2--2-2---0----|
A |---------0--|---------0--|-----------0-|-0-0-0-0---0--0-0---0--0-0---0--0-0---0----|
F#|-3-3-3---3--|-3-3-3---3--|-1-1-1---1-1-|-0-0-0-0---5--5-5---3--3-3---1--1-1---0----|
D |-0-0-0---0--|-0-0-0---0--|-0-0-0---0-0-|-0-0-0-0---0--0-0---0--0-0---0--0-0---0----|
A |-0-0-0h3-3--|-0-0-0h2-2--|-0-0-0h2h4-4-|-0-0-0-0---5--5-5---3--3-3---2--2-2---0----|
D |-0-0-0------|-0-0-0------|-0-0-0---0---|-0-0-0-0---0--0-0---0--0-0---0--0-0---0----|

d |-0---0---0---0---0---0--|-0---0---0---0---0---0--------------------------------|
A |-0---0---0---0---0---0--|-0---0---0---0---0---0--------------------------------|
F#|-1---3---0---3---0---1--|-0---1---3---0---3---0---5-----------5----------------|
D |-2---4---5---4---0---2--|-0---2---4---5---4---5-----7-5---5-7--7-5-7-------7---|
A |-0---0---0---0---0---0--|-0---0---0---0---0---0------------------------5-------|
E |-2---4---5---4---0---2--|-0---2---4---5---4---0--------------------------------| 

End on an open strum.

d |-2----0--------2----0-------0---0--0--|
A |-0----0--------0----0-------0---0--0--|
F#|-3----1--------3----1-------1---3--0--|
D |-2----0--------2----0-------0---0--0--|
A |-0----2--------0----2-------2---2--0--|
D |-----------------------------------0--|


Lyrics
__________________________________________

If to borrow is to take and not return
I have borrowed all my lonesome life
And I can't, no I can't get through
The borrower's debt is the only regret of my youth

And believe me it's not easy when I look back
Everything I took got soon returned
Just to be at Innisfree again
All of the sirens are driving me over the stern

Just to be at Innisfree again
All of the sirens are driving me over the stern

One day at Innisfree
One day that's mine there

In the street one day I saw you among the crowd
In a geometric pattern dressed
Gleaming white just as I recall
Old as I get I will never forget it at all
Gleaming white just as I recall
Old as I get I will never forget it at all

One day at Innisfree
One day that's mine there


************************************

| /   slide up
| \   slide down
| h   hammer-on
| p   pull-off
| ~   vibrato
| +   harmonic
| x   Mute note
| b   Bend
| pb  Pre-bend
| br  Bend release
| pbr Pre-bend release
| brb Bend release bend

************************************
Suggest correction
Creating personal tab
Creating personal tab
You can edit any tab online and save it as your Personal.

You can edit, replace or remove any tab part or add personal notes – all changes will be seen only by you.

Personal tabs can be accessed anytime from any device, even offline.
Learn more »
Give kudos to tab author, rate the tab!
1 2 3 4 5
comments
print report bad tab
guest
You may want to rate the tab now too:
select rating
Wanna post a correction for this tab? Suggest correction