Oops, an error
Loading. Please wait.

Blue Ridge Mountains Tab

version 1
version 1

Whole song

Interactive

27,397 views 15 this week
no commentswrite comment
1 2 3 4 5
accurate
x 4
add to favorites
launch autoscroll
font size
0
reset
how to read this tab
guitar tuner
Autoscroll
slow
fast
+/-
esc
set tempo
stop
Help us to improve Ultimate-Guitar.com Take our survey!
×
Author
Tuning: Standard

Do help out if there's any mistakes done or if you think there is something to be added 
to this tab. Also, take note I played this on an acoustic guitar so I'm not sure whether 
tab will turn out good on an electic

This is played before Robin sings "My brother where do you intend to go tonight?..."

e|------------------------------------------------------------------|
B|----15-17-20-19-19-20-x-19-17-15-17----15--15-17------------------|
G|-17--------------------------------------17------17-14----12-17-14|
D|------------------------------------------------------------------|
A|------------------------------------------------------------------|
E|------------------------------------------------------------------|

This is played after these following verses:
"To the blue ridge mountains, over near Tennesee"
"So no one gets worried, no"
"So no one gets worried, no"

e|---------------------------------------------|
B|----15-17-20-19-19-20-x-19-17-15-17----------|
G|-17-------------------------------------17-14|
D|---------------------------------------------|
A|---------------------------------------------|
E|---------------------------------------------|

This is played after the verses "I love you, I love you, oh brother of mine". Just 
until the verses "In the quivering forest..."

e|------------------------------------------------------------|
B|-17-17-17-17-15-17-17-17-17-17-15-17-20-17-15---------------|
G|----------------------------------------------14-14-14-14-12|
D|------------------------------------------------------------|
A|------------------------------------------------------------|
E|------------------------------------------------------------|


I know I'm missing a few riffs here and there so if any of you guys know how it goes, 
free to comment!
Suggest correction
comments
print report bad tab
guest
You may want to rate the tab now too:
select rating
Please do not post tabs as comments. Select "correction" instead!