Oops, an error
Loading. Please wait.

Blue Ridge Mountains Tab

version 2
version 2

Whole song

Interactive

15,027 views 21 this week
no commentswrite comment
1 2 3 4 5
x 5
add to favorites
launch autoscroll
font size
0
reset
how to read this tab
guitar tuner
Autoscroll
slow
fast
+/-
esc
set tempo
stop
Help us to improve Ultimate-Guitar.com Take our survey!
×
Difficulty
novice
Intro Riff

e---------14--13-13--14p13---------------------------------------------------|
B---14-16---------------------16-14-16--14-----14-16-------------------------|
G-16----------------------------------------16---------16-13-----16-13-------|
D----------------------------------------------------------16----------------|
A----------------------------------------------------------------------------|
E----------------------------------------------------------------------------|


repeats at multiple points up to

e-----16-14-16-14-----14--16-------|
B------------------16--------------|
G----------------------------------|
D----------------------------------|
A----------------------------------|
E----------------------------------|


Short Riff

e----------------------------------|
B---16-----------------------------|
G------16--13----------------------|
D----------------------------------|
A----------------------------------|
E----------------------------------|


Fast Riff, repeats

e----------------------------------16----------------------------------------|
B-16-16-16-16-14-16-16-16-16-14-16----16-14----------------------------------|
G---------------------------------------------13-13-13-13-11-----------------|
D----------------------------------------------------------------------------|
A----------------------------------------------------------------------------|
E----------------------------------------------------------------------------|
Suggest correction
comments
print report bad tab
guest
You may want to rate the tab now too:
select rating
Wanna post a correction for this tab? Suggest correction